PrimaNota.ru - самый крупный в мире бесплатный архив песенных текстов, аккордов, табулатур и нот


Masamichi Sugi - いとしのテラ - бас-таба, видео

Регистрация Запомнить меня
Войти через:  Facebook Google Twitter Vk Yandex Mail.ru

Masamichi Sugi - いとしのテラ - бас-таба, видео

Печатать
Просмотров: 26
Уроки эстрадного вокала в Санкт-Петербурге
Song : https://www.youtube.com/watch?v=iH20n7YTS6k



[intro]

G|--------------|--------------|--------------|------------------|
D|--------------|--------------|--------------|------------------|
A|--(keyboard)--|--(keyboard)--|--(keyboard)--|--(keyboard)--8\--|
E|--------------|--------------|--------------|------------------|


G|-------------------|-------------------|-------------------|-------------------|
D|-------------------|-------------------|--2-2-2-2-2-2-2-2--|--3-3-3-3-3-3-3-3--|
A|--3-3-3-3-3-3-3-3--|--5-5-5-5-5-5-5-5--|-------------------|-------------------|
E|-------------------|-------------------|-------------------|-------------------|


G|-------------------|---------------|
D|-------------------|---------------|
A|-------------------|---------------|
E|--5-5-5-5-5-5-5-5--|--3-3-3-3-3-3--|


[verse 1]

G|--------------------|-------------------|-------------------|-------------------|
D|--------------------|-------------------|--2-2-2-2-2-2-2-2--|--2-2-2-2-2-2-2-2--|
A|--3--3-3-3-3-3-3-3--|--3-3-3-3-3-3-3-3--|-------------------|-------------------|
E|--------------------|-------------------|-------------------|-------------------|


G|-------------------|-------------------|
D|-------------------|-------------------|
A|-------------------|-------------------|
E|--1-1-1-1-1-1-1-1--|--3-3-3-3-3-3-3-3--|


[verse 2]

G|-------------------|-------------------|-------------------|-------------------|
D|-------------------|-------------------|--2-2-2-2-2-2-2-2--|--2-2-2-2-2-2-2-2--|
A|--3-3-3-3-3-3-3-3--|--3-3-3-3-3-3-3-3--|-------------------|-------------------|
E|-------------------|-------------------|-------------------|-------------------|


G|-------------------|-------------------|-------------------|------------------|
D|-------------------|-------------------|-------------------|------------------|
A|-------------------|-------------------|-------------------|--3-3-3-3-3-3-3\--|
E|--1-1-1-1-1-1-1-1--|--3-3-3-3-3-3-3-3--|--1-1-1-1-1-1-1-1--|------------------|




G|-------------------|-------------------|-------------------|-------------------|
D|-------------------|-------------------|-------------------|-------------------|
A|-------------------|--5-5-5-5-5-5-5-5--|-------------------|--3-3-3-3-3-3-3----|
E|--5-5-5-5-5-5-5-5--|-------------------|--3-3-3-3-3-3-3-3--|----------------6--|


G|-------------------|-------------------|-------------------|-------------------|
D|-------------------|-------------------|-------------------|-------------------|
A|-------------------|--5-5-5-5-5-5-5-5--|-------------------|-------------------|
E|--5-5-5-5-5-5-5-5--|-------------------|--1-1-1-1-3-3-3-3--|--5-5-5-5-3-3-3-3--|


G|-------------------|
D|-------------------|
A|-------------------|
E|--1-1-1-1-3-3-3-3--|


[instrumental]

G|-------------------|-------------------|-------------------|-------------------|
D|-------------------|-------------------|-------------------|-------------------|
A|--3-3-3-3-3-3-3-3--|--3-3-3-3-3-3-3-3--|--3-3-3-3-3-3-3-3--|--3-3-3-3-3-3-3-3--|
E|-------------------|-------------------|-------------------|-------------------|


[verse 3]

G|-------------------|-------------------|-------------------|-------------------|
D|-------------------|-------------------|--2-2-2-2-2-2-2-2--|--2-2-2-2-2-2-2-2--|
A|--3-3-3-3-3-3-3-3--|--3-3-3-3-3-3-3-3--|-------------------|-------------------|
E|-------------------|-------------------|-------------------|-------------------|


G|-------------------|-------------------|
D|-------------------|-------------------|
A|-------------------|-------------------|
E|--1-1-1-1-1-1-1-1--|--3-3-3-3-3-3-3-3--|


[verse 4]

G|-------------------|-------------------|-------------------|-------------------|
D|-------------------|-------------------|--2-2-2-2-2-2-2-2--|--2-2-2-2-2-2-2-2--|
A|--3-3-3-3-3-3-3-3--|--3-3-3-3-3-3-3-3--|-------------------|-------------------|
E|-------------------|-------------------|-------------------|-------------------|


G|-------------------|-------------------|-------------------|------------------|
D|-------------------|-------------------|-------------------|------------------|
A|-------------------|-------------------|-------------------|--3-3-3-3-3-3-3\--|
E|--1-1-1-1-1-1-1-1--|--3-3-3-3-3-3-3-3--|--1-1-1-1-1-1-1-1--|------------------|




G|-------------------|-------------------|-------------------|-------------------|
D|-------------------|-------------------|-------------------|-------------------|
A|-------------------|--5-5-5-5-5-5-5-5--|-------------------|--3-3-3-3-3-3-3----|
E|--5-5-5-5-5-5-5-5--|-------------------|--3-3-3-3-3-3-3-3--|----------------6--|


G|-------------------|-------------------|-------------------|-------------------|
D|-------------------|-------------------|-------------------|-------------------|
A|-------------------|--5-5-5-5-5-5-5-5--|-------------------|-------------------|
E|--5-5-5-5-5-5-5-5--|-------------------|--1-1-1-1-3-3-3-3--|--5-5-5-5-3-3-3-3--|


G|-------------------|
D|-------------------|
A|-------------------|
E|--1-1-1-1-3-3-3-3--|


[instrumental]

G|-------------------|-------------------|-------------------|-------------------|
D|-------------------|-------------------|-------------------|-------------------|
A|--3-3-3-3-3-3-3-3--|--3-3-3-3-3-3-3-3--|--3-3-3-3-3-3-3-3--|--3-3-3-3-3-3-3-3--|
E|-------------------|-------------------|-------------------|-------------------|


[verse 5]

G|-------------------|-------------------|-------------------|-------------------|
D|-------------------|-------------------|-------------------|-------------------|
A|-------------------|-------------------|-------------------|-------------------|
E|--1-1-1-1-1-1-1-1--|--1-1-1-1-1-1-1-1--|--0-0-0-0-0-0-0-0--|--5-5-5-5-5-5-5-0--|


G|-------------------|-------------------|-------------------|-------------------|
D|-------------------|-------------------|-------------------|-------------------|
A|-------------------|-------------------|-------------------|-------------------|
E|--1-1-1-1-1-1-1-1--|--1-1-1-1-1-1-1-1--|--0-0-0-0-0-0-0-0--|--5-5-5-5-5-5-5-0--|


G|-------------------|-------------------|-------------------|-------------------|
D|-------------------|-------------------|-------------------|-------------------|
A|-------------------|-------------------|-------------------|-------------------|
E|--1-1-1-1-1-1-1-1--|--2-2-2-2-2-2-2-2--|--5-5-5-5-3-3-3-3--|--2-2-2-2-2-2-2-2--|


G|-------------------|-------------------|
D|-------------------|-------------------|
A|-------------------|-------------------|
E|--1-1-1-1-1-1-1-1--|--3-3-3-3-3-3-3-3--|




G|-------------------|-------------------|-------------------|-------------------|
D|-------------------|-------------------|-------------------|-------------------|
A|-------------------|--5-5-5-5-5-5-5-5--|-------------------|--3-3-3-3-3-3-3----|
E|--5-5-5-5-5-5-5-5--|-------------------|--3-3-3-3-3-3-3-3--|----------------6--|


G|-------------------|-------------------|-------------------|-------------------|
D|-------------------|-------------------|-------------------|-------------------|
A|-------------------|--5-5-5-5-5-5-5-5--|-------------------|-------------------|
E|--5-5-5-5-5-5-5-5--|-------------------|--1-1-1-1-3-3-3-3--|--5-5-5-5-3-3-3-3--|


G|-------------------|
D|-------------------|
A|-------------------|
E|--1-1-1-1-3-3-3-3--|


G|-------------------|-------------------|-------------------|-------------------|
D|-------------------|-------------------|-------------------|-------------------|
A|-------------------|--5-5-5-5-5-5-5-5--|-------------------|--3-3-3-3-3-3-3----|
E|--5-5-5-5-5-5-5-5--|-------------------|--3-3-3-3-3-3-3-3--|----------------6--|


G|-------------------|-------------------|-------------------|-------------------|
D|-------------------|-------------------|-------------------|-------------------|
A|-------------------|--5-5-5-5-5-5-5-5--|-------------------|-------------------|
E|--5-5-5-5-5-5-5-5--|-------------------|--1-1-1-1-3-3-3-3--|--5-5-5-5-3-3-3-3--|


G|-------------------|
D|-------------------|
A|-------------------|
E|--1-1-1-1-3-3-3-3--|


[outro]

G|-------------------|-------------------|-------------------|---------------|-----|
D|-------------------|-------------------|--2-2-2-2-2-2-2-2--|--3-3-3-3-5-3--|-----|
A|--3-3-3-3-3-3-3-3--|--5-5-5-5-5-5-5-5--|-------------------|---------------|--3--|
E|-------------------|-------------------|-------------------|---------------|-----|



*******************

\ : slide down

*******************

in regular sequence!
Добавлено: 19.10.2017
Другие материалы по этой песне:
  • Аккорды и текст

Страница создана 19.10.2017
http://primanota.ru/masamichi-sugi/-chords.htm
Привет, Гость.
Предлагаем пройти революционный курс по гитаре.
Подарок от PrimaNota.Ru, забирай!