PrimaNota.ru - самый крупный в мире бесплатный архив песенных текстов, аккордов, табулатур и нот


Masamichi Sugi - 懐かしき 80S - бас-таба, видео

Регистрация Запомнить меня
Войти через:  Facebook Google Twitter Vk Yandex Mail.ru

Masamichi Sugi - 懐かしき 80S - бас-таба, видео

Печатать
Просмотров: 39
Уроки эстрадного вокала в Санкт-Петербурге
Bass Start - 00:10


[Intro]
G|------|
D|------|
A|------|
E|-7-7-7|

[Verse 1]
G|------------|------------|---------------8-|-6--------6)-4----|
D|------------|------------|---6-7-9-9/10----|----6--(6------6-4|
A|-7--7--7--7-|-9--9--9--9-|-9---------------|------------------|
E|------------|------------|-----------------|------------------|

G|------------|------------|-------------8-|-6----------------|
D|------------|------------|---6-7-9-10----|----6--(6-6)---4-6|
A|-7--7--7--7-|-9--9--9--9-|-9-------------|-------------7----|
E|------------|------------|---------------|------------------|

[Pre-Chorus]
G|-------------|-------------|-----------------|-------------|
D|-7-----9----9|-------6----6|-7-----9----(9-9)|-------6----6|
A|----7-----9--|-7--7-----6--|----7-----9------|-7--7-----6--|
E|-------------|-------------|-----------------|-------------|

[Chorus]
G|------------|----------------|------------|-------------|
D|-7---7-7---7|-7/11--10--9--8-|------------|-------------|
A|------------|----------------|-9---9------|-7---7-------|
E|------------|----------------|-------7---7|--------7-7-7|

[Verse 2]
G|------------|------------|---------------8-|-6--------6)-4----|
D|------------|------------|---6-7-9-9/10----|----6--(6------6-4|
A|-7--7--7--7-|-9--9--9--9-|-9---------------|------------------|
E|------------|------------|-----------------|------------------|

G|------------|------------|---------------8-|-6----------------|
D|------------|------------|---6-7-9-9/10----|----6--(6------4-6|
A|-7--7--7--7-|-9--9--9--9-|-9---------------|----------4)-7----|
E|------------|------------|-----------------|------------------|

[Pre-Chorus]
G|-------------|-------------|-------------|-------------|
D|-7-----9----9|-------6----6|-7-----9----9|-------6----6|
A|----7-----9--|-7--7-----6--|----7-----9--|-7--7-----6--|
E|-------------|-------------|-------------|-------------|

[Chorus]
G|------------|----------------|------------|-----------|
D|-7---7-7---7|-7/11--10--9--8-|------------|-----------|
A|------------|----------------|-9---9------|-7---7-7---|
E|------------|----------------|-------7---7|-----------|

[Bridge]
G|--------------------|---------------------|
D|-7----6-------------|-7----6--------------|
A|-----------9----7---|-----------9-----7---|
E|--------------------|--------------7------|

[Instrumental]
G|------------|------------|----------------|----------4-6-7-8|
D|------------|------------|----------------|----4-6-7--------|
A|-3-----3----|-5-----5----|-7-----7--------|-7)--------------|
E|----3-----3-|----5-----5-|----7-----7---(7|-----------------|

G|-5-----5----|-7-----7--7-(7-7)|----9\-|----9\-|---------------|
D|----5-----5-|----7------------|-------|-------|---------------|
A|------------|-----------------|-7-----|-7-----|-7--(7-7)------|
E|------------|-----------------|-------|-------|-----------7-7-|

[Verse 3]
G|------------|------------|---------------8-|-6--------6)-4----|
D|------------|------------|---6-7-9-9/10----|----6--(6------6-4|
A|-7--7--7--7-|-9--9--9--9-|-9---------------|------------------|
E|------------|------------|-----------------|------------------|

G|------------|------------|---------------8-|-6----------------|
D|------------|------------|---6-7-9-9/10----|----6--(6------4-6|
A|-7--7--7--7-|-9--9--9--9-|-9---------------|----------4)-7----|
E|------------|------------|-----------------|------------------|

[Pre-Chorus]
G|-------------|-------------|-------------|-------------|
D|-7-----9----9|-------6----6|-7-----9----9|-------6----6|
A|----7-----9--|-7--7-----6--|----7-----9--|-7--7-----6--|
E|-------------|-------------|-------------|-------------|

[Chorus]
G|------------|----------------|------------|------------|
D|-7---7-7---7|-7/11--10--9--8-|------------|------------|
A|------------|----------------|-9---9------|-7---7-7---7|
E|------------|----------------|-------7---7|------------|

G|------------|----------------|------------|--------------|
D|-7---7-7---7|-7/11--10--9--8-|------------|--------------|
A|------------|----------------|-9---9------|-7---7-7-6-5-4|
E|------------|----------------|-------7---7|--------------|

[Outro]
G|------------|------------|------------|--------------|
D|------------|------------|------------|--------------|
A|-3-----3----|-5-----5----|-7-----7----|-7-----7-6-5-4|
E|----3-----3-|----5-----5-|----7-----7-|----7---------|

G|------------|------------|------------|-------------|
D|------------|------------|------------|-------------|
A|-3-----3----|-5-----5----|-7-----7----|-7-----7-4---|
E|----3-----3-|----5-----5-|----7-----7-|----7------7-|

G|------------|------------|------------|-------------------------| (x2)
D|------------|------------|------------|-------------------------|
A|-3-----3----|-5-----5----|-7-----7----|-7-----(7-7)-(7-4)-(4----|
E|----3-----3-|----5-----5-|----7-----7-|----7-----------------7)-|
                 (fade out)
G|------------|------------|
D|------------|------------|
A|-3-----3----|-5-----5----|
E|----3-----3-|----5-----5-|



************************

| / slide up
| \ slide down
| ( ) fast

************************
Добавлено: 19.10.2017
Другие материалы по этой песне:
  • Аккорды и текст

Страница создана 19.10.2017
http://primanota.ru/masamichi-sugi/-80s-chords.htm
Привет, Гость.
Предлагаем пройти революционный курс по гитаре.
Подарок от PrimaNota.Ru, забирай!