PrimaNota.ru - самый крупный в мире бесплатный архив песенных текстов, аккордов, табулатур и нот


Masaaki Kishibe - The End Of The World - таба, видео

Регистрация Запомнить меня
Войти через:  Facebook Google Twitter Vk Yandex Mail.ru

Masaaki Kishibe - The End Of The World - таба, видео

Печатать
Просмотров: 121
The End of the World - Masaaki Kishibe - My Favorites
Open Dsus4 Tuning - DADGAD - Capo fret 3
BPM = 65



     E  E  E  E  E  E  E  E     E  E  E  E  E  E  E  E   
D||--------------0-----------|--------------------------|
A||--------------------------|--------------0-----------|
G||-----------0-----------0--|--------4--5-----0-----0--|
D||--------0-----------4-----|-----2--------------4-----|
A||-----2-----------2--------|--0-----------------------|
D||--5-----------2-----------|--------------5-----------|


  E  E  E  E  E  E  E  E     E  E  E  E  E  E  Q     
--------------0-----------|--------------------0----|
--------------------------|--------------0----------|
-----------0-----------0--|--------4--5--0----------|
--------0-----------4-----|-----2-----------0-------|
-----2-----------2--------|--0----------------------|
--5-----------2-----------|--------------5----------|


    E  E  E  S S E  E  E  E     E  E  Q    E  E  E  E   
|----------------------------|--2--0-------------------|
|---2--------2-0----------2--|--------0----------------|
|*--------0------0-----0-----|--------0----------0-----|
|*-----0------------0--------|----------------0-----0--|
|----------------2-----------|-------------------------|
|---5------------------------|--0----------0-----------|


          |--3--|                                       
  Q    E  E  E  E  E  E  E     E  E  E  E  E  E  E  E   
----------------------------|--------------0-----------|
-------------------------3--|--2-----------------2-----|
--0-------0-----------0-----|--------0--------------0--|
-------0-----4--2-----------|-----4-----4-----4--------|
-------------------0--------|--2-----------------------|
--2-------------2-----------|--------------------------|


  ^           ^                           ^            
  E  E  E  E  E  E  E  S S    E  E  E  E  E  E  E  E   
--------2--0--2--------0-2-|--4-----0-----0-----------|
--0-----------2------------|-----------2--2--------2--|
--0-----------------0------|-----0--------------0-----|
-----0-----------0---------|-----------------0--------|
--3-----------0------------|--2-----------------------|
---------------------------|--------------2-----------|


  ^                                                     
  E  E  E  E  E  E  E  E     S S E  E  E  E  E  Q       
--2-----0-----------------|------------0--------------||
--2--------2--3--2--------|--0-2-3--------------------||
-----0-----------------0--|---------------------0----*||
--------------------0-----|--1------0--------0-------*||
--0-----------0-----------|---------------0-----------||
--------------------------|---------------------------||


                                          ^     ^     
  E  E  E  E   E   E  Q       E  E  E  E  E  E  Q     
--2------------------------|-------------------------|
-----2--0-------------0----|--------------3-----2----|
-----------0--(0)----------|--0--------0--0-----0----|
-------------------0-------|--------0--------0-------|
--0------------------------|-----0--------2----------|
---------------0-----------|--5-----------------5----|


              ^                                       
  E  E  E  E  E  E  E  E     E  E  E  E  E  E  E  E   
--------------------2--0--|--2--0--------------------|
--------------3--3--------|--------2--------------2--|
--------0--0--0-----------|--------------------0-----|
--2--2--------------------|-----------0-----4--------|
--3-----------3-----------|--------------------------|
--------------------------|--5-----------5-----------|


  E  E  E  E  E  E  S S S S    E  E  E  E  E  E  E  E   
----------------------------|--------------0-----------|
--3-----3--3--5-----5---5---|-----------2-----------0--|
-----4----------------4---4-|--------0-----------0-----|
-----------------0----------|-----4-----------4--------|
--0-------------------------|--------------------------|
--------------5-------------|--5-----------------------|


                             ^                           
                                   |--3--|               
  E  E  E  E  E  E  E  E     E  E  E  E  E  E  E  E  E   
--4-----0-----0-----------|--0-----5--0-----0--------0--|
-----------2--------0-----|--0-----------2--------2-----|
-----------------------0--|-----0-----------------0-----|
-----0-----------0--------|--------------------0--------|
--------------------------|-----------------------------|
--2-----------2-----------|--2--------------2-----------|


  ^           ^              ^                            
  E  E  E  E  E  E  E  E     E  E  E  E  S S S S S S S S  
--5-----4-----2--0-----0--|--1--------1--0---------------|
--7-----5-----3--0--2--2--|--3-----3-------3-2-0---------|
--------------------0-----|--0--0----------------0-------|
-----------0--------------|------------------------4-2-0-|
--0--0--------0-----------|--0---------------------------|
--------------------------|--------------0---------------|


  E  E  E  S S E  E  E  E     E  E  Q    E  E  E  E   
---------------------------|--2--0-------------------|
--2--------2-0----------2--|--------0----------------|
--------0------0-----0-----|--------0----------0-----|
-----0------------0--------|----------------0-----0--|
---------------2-----------|-------------------------|
--5------------------------|--0----------0-----------|


          |--3--|                                       
  Q    E  E  E  E  E  E  E     E  E  E  E  E  E  E  E   
----------------------------|--------------0-----------|
-------------------------3--|--2-----------------2-----|
--0-------0-----------0-----|--------0--------------0--|
-------0-----4--2-----------|-----4-----4-----4--------|
-------------------0--------|--2-----------------------|
--2-------------2-----------|--------------------------|


  ^           ^                           ^            
  E  E  E  E  E  E  E  S S    E  E  E  E  E  E  E  E   
--------2--0--2--------0-2-|--4-----0-----0-----------|
--0-----------2------------|-----------2--2--------2--|
--0-----------------0------|-----0--------------0-----|
-----0-----------0---------|-----------------0--------|
--3-----------0------------|--2-----------------------|
---------------------------|--------------2-----------|


  E  E  E  E   E   E  Q       E  E  E  E  E  E  E  E   
--2------------------------|--------------0-----------|
-----2--0-------------0----|--------------------0-----|
-----------0--(0)----------|--0--------0-----------0--|
-------------------0-------|--------0--------0--------|
--0------------------------|-----2--------------------|
---------------0-----------|--5-----------------------|


  ^           ^                              ^                    
                                                    |----3----|   
  E  E  E  E  E  E  E  S S    E  E  E   E    Q      E    E    E   
--------2--0--2--------0-2-|--4-----0--------0-------------------|
--0-----------2------------|-----------(2)\--2--------------<>2--|
--0-----------------0------|-----0---------------------<>0-------|
-----0-----------0---------|----------------------<>0------------|
--3-----------0------------|--2----------------------------------|
---------------------------|-----------------2-------------------|


    Q.     E  E  E  E  E      E   E  Q    E  E  E  E   
--<>0---------2-----------|---------------------------|
-----------2-----2--0-----|----------0----------------|
-----------------------0--|--(0)----------0--------0--|
--------------------------|-------0-------------0-----|
--------------0-----------|------------------2--------|
--------------------------|---0-----------5-----------|


                             ^                        
  E  E  E  E  E  E  E  E     E  E  E  E  E  E  E  E   
--0-----------------------|--------------------------|
--------------------------|--0-----------------------|
-----------0--------4--5--|--0--0-----0-----------0--|
--------4--------2--------|--------4-----------0-----|
-----2--------0-----------|-----------------2--------|
--2-----------------------|--5-----------5-----------|


                             ^                                     ^          
  E  E  E  E  E  E  E  E     E  E  Q    E  E  E  E     E  E  E  E  H          
--0-----------------------|--0----------------------|--------0-----0--------||
--------------------------|-------------------------|--0--------0--0--------||
-----------0--------4--5--|-----0----------------0--|-----0--------0--------||
--------4--------2--------|--------4----------0-----|--------------0--------||
-----2--------0-----------|----------------2--------|--------------2--------||
--2-----------------------|--4----------5-----------|--------------5--------||




Duration Legend
---------------
W - whole
H - half
Q - quarter
E - 8th
S - 16th
T - 32nd
X - 64th
. - note dotted
|-n-|  - n-tuplets


Tablature Legend
----------------
L - tied note
x - dead note
g - grace note
(n) - ghost note
> - accentuded note
NH - natural harmonic
AH - artificial harmonic
TH - tapped harmonic
SH - semi harmonic
PH - pitch harmonic
h - hammer on
p - pull off
b - bend
br - bendRelease
pb - preBend
pbr - preBendRelease
brb - bendReleaseBend
\n/ - tremolo bar dip
\n - tremolo bar dive
-/n - tremolo bar Release up
/n\ - tremolo bar inverted dip
/n - tremolo bar return
-\n - tremolo bar Release down
S - shift slide
s - legato slide
/ -  slide into from below or out of upwards
\ -  slide into from above or out of downwards
~ - vibrato
W - wide vibrato
tr - trill
TP - tremolo picking
T - tapping
S - slap
P - pop
< - fade in
^ - brush up
v - brush down
Добавлено: 09.06.2012
Другие материалы по этой песне:

Страница создана 09.06.2012
http://primanota.ru/masaaki-kishibe/the-end-of-the-world-chords.htm
Привет, Гость.
Предлагаем пройти революционный курс по гитаре.
Подарок от PrimaNota.Ru, забирай!