PrimaNota.ru - самый крупный в мире бесплатный архив песенных текстов, аккордов, табулатур и нот


Masaaki Kishibe - End Of The Summer Sea - таба, видео

Регистрация Запомнить меня
Войти через:  Facebook Google Twitter Vk Yandex Mail.ru

Masaaki Kishibe - End Of The Summer Sea - таба, видео

Печатать
Просмотров: 121
End of the Summer Sea - Masaaki Kishibe - Growing Up
Dsus4 Tuning - DADGAD - Capo Fret 2
BPM = 75


     E  E  E  E  E  E  E  E     E  E  E  E  E  E  E  E   
D||--------------------------|--0-----------------------|
A||--2--------2--3--------3--|-----------0--2--0--------|
G||--------0-----------0-----|--------0-----------0-----|
D||-----0-----------2--------|-----4-----------------0--|
A||--------------0-----------|--2-----------------------|
D||--5-----------------------|--------------2-----------|


                                              ^        ^                        
  E  E  E  E  E  E  E  E     E  E  E  E  Q    E  E     E  E  E  E  E  E  E  E   
--------------------------|-------------------0-----|--0-----------------5--4--|
--------0--2--0-----------|-------------------0--2--|--2-----------------------|
-----0-----------0-----0--|-----------0-------------|--------0-----0-----------|
--2-----------------4-----|--------0----------4-----|--4--4-----4-----4--------|
--3-----------------------|-----2-------------------|--------------------------|
--------------0-----------|--5-----------5----0-----|--5-----------------------|


  E  E  E  E  E  E  E  E     E  E  E  E  E  E   E  E   
--0--------------------2--|--0------------------------|
--------------------------|--------3-----2---------2--|
--------0-----0-----4-----|-----0-----0---------------|
-----4-----4-----4--------|-----------------0h--2-----|
--------------------------|--3------------------------|
--2-----------------------|---------------------------|


              ^             ^                                                   
  E  E  E  E  Q    E  E     E  E  E  E  E  E  E  E     E  E  E  E  E  E  E  E   
-------------------0-----|--0-----------------5--4--|--0--------------------2--|
--0-------------------0--|--2-----------------------|--------------------------|
--------0----------------|--------0-----0-----------|--------0-----0-----4-----|
-----0-----0--4----------|--4--4-----4-----4--------|-----4-----4-----4--------|
-------------------------|--------------------------|--------------------------|
--0-----------0----------|--5-----------------------|--2-----------------------|


                                                        ^           ^           
  E  E  E  E  E  E  E  E     E  E  E  E  E  E  E  E     E  E  E  E  E  E  Q     
--0-----------------------|--------------0-----------|-------------------------|
--------3-----2--0-----0--|-----------------------0--|--2--------3--2-----0----|
-----0-----0--------0-----|--0--------0--------0-----|--2-----2----------------|
--------------------------|--------0--------0--------|--2--2-----------0-------|
--3-----------------3-----|-----2--------------------|-------------------------|
--------------0-----------|--5-----------------------|--4-----------3----------|


  ^     ^                    ^           ^              ^                       
  E  E  E  E  E  E  E  E     E  E  E  E  E  E  E  E     Q    E  E  E  E  E  E   
--------------------------|--------------------------|-------------------------|
--0--------------------0--|--2-----------------0-----|-------------------0--2--|
-----0-----0--------0-----|--0--0--0--------0--------|----------0-----0--------|
--0-----4-----2--4--------|-----------2--4-----------|--0----0-----------------|
--------------4-----------|--3--------------------0--|--2-------------2--3-----|
--2-----0-----------------|--------------0-----------|--5----------5-----------|


  ^           ^             ^           ^              ^           ^            
  E  E  E  E  E  E  Q       E  E  E  E  E  E  E  E     E  E  E  E  E  E  E  E   
--------------2-----1----|--4--------2--2-----0-----|--2-----------------------|
--2--------3-----2-------|--------0-----0--0--------|--3--2--0-----------------|
--2-----2-----2----------|-----0-----------------0--|-----------0--------0-----|
--2--2-------------------|--------------------------|--------------4--------0--|
--------------2----------|--------------------------|--3--------------0--------|
--4----------------------|--2-----------2-----------|--------------0-----------|


  ^           ^                                    
  E  E  E  E  H           E  E  E  E  E  E  E  E   
-----------------------|--------------------------|
--0--------------------|--2--------2--3--------3--|
-----------0--0--------|--------0-----------0-----|
--------0--------------|-----0-----------2--------|
-----2-----------------|--------------0-----------|
--5-----------5--------|--5-----------------------|


                 |--3--|                                   
  E  E  E  E  E  S  S  S E  E     E  E  E  E  E  E  E  E   
--0----------------------------|--------------------------|
-----------0--2--0h-2p-0-------|--------0--2--0-----------|
--------0----------------0-----|-----0-----------0-----0--|
-----4----------------------0--|--2-----------------4-----|
--2----------------------------|--3-----------------------|
--------------2----------------|--------------0-----------|


                   ^        ^                                                   
  E  E  E  E  Q    E  E     E  E  E  E  E  E  E  E     E  E  E  E  E  E  E  E   
-------------------0-----|--0-----------------5--4--|--0--------------------2--|
-------------------0--2--|--2-----------------------|--------------------------|
-----------0-------------|--------0-----0-----------|--------0-----0-----4-----|
--------0----------4-----|--4--4-----4-----4--------|-----4-----4-----4--------|
-----2-------------------|--------------------------|--------------------------|
--5-----------5----0-----|--5-----------------------|--2-----------------------|


                              ^           ^           
  E  E  E  E  E  E   E  E     E  E  E  E  Q    E  E   
--0------------------------|-------------------0-----|
--------3-----2---------2--|--0-------------------0--|
-----0-----0---------------|--------0----------------|
-----------------0h--2-----|-----0-----0--4----------|
--3------------------------|-------------------------|
---------------------------|--0-----------0----------|


  ^                                                   
  E  E  E  E  E  E  E  E     E  E  E  E  E  E  E  E   
--0-----------------5--4--|--0--------------------2--|
--2-----------------------|--------------------------|
--------0-----0-----------|--------0-----0-----4-----|
--4--4-----4-----4--------|-----4-----4-----4--------|
--------------------------|--------------------------|
--5-----------------------|--2-----------------------|


                                                        ^           ^           
  E  E  E  E  E  E  E  E     E  E  E  E  E  E  E  E     E  E  E  E  E  E  Q     
--0-----------------------|--------------0-----------|-------------------------|
--------3-----2--0-----0--|-----------------------0--|--2--------3--2-----0----|
-----0-----0--------0-----|--0--------0--------0-----|--2-----2----------------|
--------------------------|--------0--------0--------|--2--2-----------0-------|
--3-----------------------|-----2--------------------|-------------------------|
--------------0-----2-----|--5-----------------------|--4-----------3----------|


  ^     ^                    ^           ^            
  E  E  E  E  E  E  E  E     E  E  E  E  E  E  E  E   
--------------------------|--------------------------|
--0--------------------0--|--2-----------------0-----|
-----0-----0--------0-----|--0--0--0--------0--------|
--0-----4-----2--4--------|-----------2--4-----------|
--------------4-----------|--3--------------------0--|
--2-----0-----------------|--------------0-----------|


  ^                                      ^            
  E  E  E  E  E  E  E  E     E  E  E  E  E  E  E  E   
-----------------------0--|--2-----------------2-----|
--3--------3--2-----3-----|--------0-----------------|
--------0-----------------|-----4-----0-----0-----0--|
--0--0-----------0--------|--------------4-----------|
--------------------0--2--|--3-----------3-----------|
--5-----------5-----------|--------------------------|


  ^           ^              ^           ^            
  E  E  E  E  E  E  E  E     E  E  E  E  E  E  E  E   
--0-----------------------|--------------------2-----|
--0--3-----0--------3-----|--3-----2-----3-----------|
--------4--------0-----0--|--0-----0-----0-----------|
--------------4-----------|--2--2-----2--2--2--------|
--2-----------------------|--0-----------------------|
--------------2-----------|--------------0--------4--|


  E  E  E  E  E  E  E  E     E  E  E  E  E  E  E  E   
--0--------------------0--|--2--------------2--4--5--|
-----------3--2-----3-----|--------0-----------------|
--------0-----------------|-----4-----0--------------|
-----0-----------0--------|--------------4-----------|
--------------------0--2--|--3-----------3-----------|
--5-----------5-----------|--------------------------|


              ^              ^                                                
  E  E  E  E  E  E  E  E     E  E  E  E  E  E  E  E     E  E  E  E  H         
--0--------------------0--|--------------------------|-----------------------|
-----------------0--2-----|--3--2--------------0-----|--0--------------------|
--------------0-----------|--0-----0-----0-----------|--0--------0--0--------|
-----0--2--4--0-----------|-----------0-----------0--|--------0--------------|
--2-----------------------|--0--------------0--------|-----2-----------------|
--------------2-----------|--------------0-----------|--5-----------5--------|


  E  E  E  E  E  E  E  E     E  E  E  E  E  E  E  E   
--------------------------|--------------------------|
--2--------0--0-----------|--0-----------------------|
-----------------------0--|-----------0--0--------0--|
--------3-----------3-----|--------2-----------2-----|
-----3-----------3--------|-----2-----------2--------|
--3-----------3-----------|--2-----------2-----------|


                                         ^          
  E  E  E  E  E  E  E  E     E  E  E  E  Q.     E   
--------------------------|------------------------|
--------------0-----------|---------------------0--|
--0--------0--------0-----|-----0--------0---------|
--------1-----------------|-----------0--4---------|
-----1-----------1-----1--|--------0---------------|
--1-----------1-----------|--0-----------0---------|


                      v      
  S S S S E  E  E  E  Q      
----------------0-----0----||
----------0--------0--0----||
--------0-------------0----||
------0------0--------0----||
----2-----------------2----||
--5-------------------5----||




Duration Legend
---------------
W - whole
H - half
Q - quarter
E - 8th
S - 16th
T - 32nd
X - 64th
. - note dotted
|-n-|  - n-tuplets


Tablature Legend
----------------
L - tied note
x - dead note
g - grace note
(n) - ghost note
> - accentuded note
NH - natural harmonic
AH - artificial harmonic
TH - tapped harmonic
SH - semi harmonic
PH - pitch harmonic
h - hammer on
p - pull off
b - bend
br - bendRelease
pb - preBend
pbr - preBendRelease
brb - bendReleaseBend
\n/ - tremolo bar dip
\n - tremolo bar dive
-/n - tremolo bar Release up
/n\ - tremolo bar inverted dip
/n - tremolo bar return
-\n - tremolo bar Release down
S - shift slide
s - legato slide
/ -  slide into from below or out of upwards
\ -  slide into from above or out of downwards
~ - vibrato
W - wide vibrato
tr - trill
TP - tremolo picking
T - tapping
S - slap
P - pop
< - fade in
^ - brush up
v - brush down
Добавлено: 18.06.2012
Другие материалы по этой песне:

Страница создана 13.05.2012
http://primanota.ru/masaaki-kishibe/end-of-the-summer-sea-chords.htm
Привет, Гость.
Предлагаем пройти революционный курс по гитаре.
Подарок от PrimaNota.Ru, забирай!