PrimaNota.ru - самый крупный в мире бесплатный архив песенных текстов, аккордов, табулатур и нот


Masaaki Kishibe - A Sea Of The Clouds - таба, видео

Регистрация Запомнить меня
Войти через:  Facebook Google Twitter Vk Yandex Mail.ru

Masaaki Kishibe - A Sea Of The Clouds - таба, видео

Печатать
Просмотров: 130
A Sea of the Clouds - Masaaki Kishibe - Miracle Mountain
Open D Tuning - DADF#AD - Capo Fret 4
BPM = 180

      E  E  E  E  E  E  E  E  E  E  E  E   
D ||--0-----------------L-----------0-----|
A ||-----------------------------4-----0--|
F#||--------0--------0--------0-----------|
D ||-----0--------0--------0--------------|
A ||--2--------2--------2--------0--------|
D ||--------------------------------------|


  E  E  E  E  E  E  E  E  E  E  E  E     E  E  E  E  E  E  E  E  E  E  E  E   
--------------------------------0-----|--------------------------------0-----|
--2-----------------L--------4-----0--|--2-----------------L--------4-----0--|
--------0--------0--------0-----------|--------0--------0--------0-----------|
-----0--------0--------0--------------|-----0--------0--------0--------------|
--2--------2--------2--------0--------|--2--------2--------2--------0--------|
--------------------------------------|--------------------------------------|


  E  E  E  E  E  E  E  E  E  Q.          E  E  E  E   E  E  E  E  E  E  E  E   
------------------------------------||---4--------2p--0-----------------0--2--|
--2-----------------L--------0------||-------------------4--L--------4--------|
--------0--------0--------0---------||*--------0------------------0-----------|
-----0--------0--------0------------||*-----0------------------2--------------|
--2--------2--------2--------0------||---2--------2---------0--------0--------|
------------------------------------||----------------------------------------|


  E  E  E  E  E  E  E  E  E  E   E  E     E  E  E  E   E  E  E  E  E  E  E  E   
--0---------------------------------0--|--4--------2p--0-----------------0--2--|
-----------2--------L--------2h--4-----|------------------4--L--------4--------|
--------0--------0--------0------------|--------0------------------0-----------|
-----0--------0--------0---------------|-----0------------------2--------------|
---------------------------------------|--2--------2---------0--------0--------|
--5--------5--------5--------5---------|---------------------------------------|


  E  E  E  E  E  E  E  E  E  E   E  E   
--0---------------------------------0--|
-----------2--------L--------0h--2-----|
--------0--------0--------0------------|
-----0--------0--------0---------------|
---------------------------------------|
--5--------5--------5--------5---------|


  E   E  E  E  E  E  E  E  E  E   E  E   
--2h--4-----L------------------------0--|
------------------0--L-----0--0h--2-----|
------------------0--L-----0--0---------|
---------0-----0--------0---------------|
----------------------------------------|
--0---------0--------0--------5---------|


  E   E  E  E  E  E  E  E  E  E   E  E     
--2h--4-----L----------------------------||
------------------0--L-----0--L----------||
------------------0--L-----0--L---------*||
---------0-----0--------0------------0--*||
------------------------------0h--4------||
--0---------0--------0-------------------||


  E   E  E  E  E  E  E  E  E  E  E  E     E  E  E  E  E  E  E  E  E  E  E  E   
--2h--4-----L--------------------------|--0-----------0-----------------------|
------------------0--L-----0--L--------|-----------4-----0--2--------0--------|
------------------0--L-----0--L-----0--|--------0-----------------0--------0--|
---------0-----0--------0--------0-----|-----0-----------------0--------2-----|
------------------------------4--------|--2--------0--------------------------|
--0---------0--------0-----------------|--------------------5--------4--------|


  E  E  E  E  E  E   E  E  E  E   E  E     E  E  E  E  E  E  E  E  E  E  E  E   
--0-----------0--2S--4--------2p--0-----|--0-----------0-----------------------|
-----------4-------------------------4--|-----------4-----0--2--------0--------|
--------0------------------0------------|--------0-----------------0--------0--|
-----0------------------0---------------|-----0-----------------0--------2-----|
--2--------0------------------0---------|--2--------0--------------------------|
---------------------5------------------|--------------------5--------4--------|


                                                                  >  >      
  E  E  E  E  E  E  E  E  E  E  Q        Q    E  E  E  E  Q    E  E  E  E   
--------------------------0--L--2S----|--4-------L-------------------------|
--------0--L-----2--L-----2--L--2-----|-------------7-----5-------L--4-----|
--1--------------1--L-----1--L--1-----|--4-------L--4-----4-------L--4-----|
-----0--------0--------0--------------|-------4--------4-------4--------0--|
--------------------------------------|------------------------------------|
--2--------2--------2--------2--------|--4-------4--------4-------4--------|


          >                                                                 
  Q    E  E  E  E  E  E  E  E  E  E     Q     E  E  E  E  Q    E  E  E  E   
--0-------L--0-----------------0-----|--4~-------L--------0-------L--------|
--2-------L--2-----4--------4-----7--|--------------7-----0-------L--0-----|
--0-------L--0-----------5-----------|--------------0----------------0-----|
-------0--------0-----5--------------|--------0--------0-------0-----------|
-------------------0--------0--------|--------------------2-------0--------|
--5-------5--------------------------|--0--------0----------------------4--|


          >                                                                  
  Q    E  E  E  E  E  E  E  E  E  E      Q    E  E  E  E  Q    E  E   E  E   
--0-------L--0-----------------0------|-------------------------------------|
--2-------L--2-----4--------4-----4b--|--L-------L--0--------------------0--|
--0-------L--0-----------5------------|-------------------0-------0h--1-----|
-------0--------0-----5---------------|-------0--------0-------0------------|
-------------------0--------0---------|-------------------------------------|
--5-------5---------------------------|--0-------0--------0-------0h--2--4--|


          >                                                                 
  Q    E  E  E  E  E  E  E  E  E  E     Q     E  E  E  E  Q    E  E  E  E   
--0-------L--0-----------------0-----|--4~-------L--------0-------L--------|
--2-------L--2-----4--------4-----7--|--------------7-----0-------L--0-----|
--0-------L--0-----------5-----------|--------------0----------------0-----|
-------0--------0-----5--------------|--------0--------0-------0-----------|
-------------------0--------0--------|--------------------2-------0--------|
--5-------5--------------------------|--0--------0----------------------4--|


          >                   >                >                >  >      
  Q    E  E  E  E  Q    E  E  E  E     Q    E  E  E  E  Q    E  E  E  E   
--0-------L--0----------------------|--0-------L--0-----2----------------|
--2-------L--2-----4-------L--4-----|--2-------L--2-----4-------L--4-----|
--0-------L--0-----3-------L--3-----|--1-------L--1-----3-------L--3-----|
-------0--------0-------2--------0--|-------0--------0-------2--------0--|
------------------------------------|------------------------------------|
--5-------5--------4-------4--------|--2-------2--------4-------4--------|


          >                >                                                
  Q    E  E  E  E  Q    E  E  E  E     E  E  E  E  E  E  E  E  E  E  E  E   
--0-------L-------------------------|--------------------------------------|
--2-------L--2-----4-------L--------|--2-----------------L--------0--------|
--1-------L--1-----3-------L--3-----|--------0--------0--------0--------0--|
-------0--------0-------2--------0--|-----0--------0--------0--------2-----|
------------------------------------|--2--------2--------2--------0--------|
--2-------2--------4-------4--------|--------------------------------------|


  E  E  E  E  E  E  E  E  E  Q.          E  E  E  E   E  E  E  E  E  E  E  E   
------------------------------------||---4--------2p--0-----------------0--2--|
--2-----------------L--------0------||-------------------4--L--------4--------|
--------0--------0--------0---------||*--------0------------------0-----------|
-----0--------0--------0------------||*-----0------------------2--------------|
--2--------2--------2--------0------||---2--------2---------0--------0--------|
------------------------------------||----------------------------------------|


  E  E  E  E  E  E  E  E  E  E   E  E     E  E  E  E   E  E  E  E  E  E  E  E   
--0---------------------------------0--|--4--------2p--0-----------------0--7--|
-----------2--------L--------2h--4-----|------------------4--L--------4--------|
--------0--------0--------0------------|--------0------------------0-----------|
-----0--------0--------0---------------|-----0------------------2--------------|
---------------------------------------|--2--------2---------0--------0--------|
--5--------5--------5--------5---------|---------------------------------------|


  E  E  E  E  E  E  E  E  E  E   E  E   
--L--------L--9-----0---------------0--|
-----------------------------0h--2-----|
--------0-----------------0------------|
-----0-----------0-----0---------------|
---------------------------------------|
--5--------5--------5--------5---------|


  E   E  E  E  E  E  E  E  E  E   E  E   
--2h--4-----L------------------------0--|
------------------0--L-----0--0h--2-----|
------------------0--L-----0--0---------|
---------0-----0--------0---------------|
----------------------------------------|
--0---------0--------0--------5---------|


  E   E  E  E  E  E  E  E  E  E   E  E     
--2h--4-----L----------------------------||
------------------0--L-----0--L----------||
------------------0--L-----0--L---------*||
---------0-----0--------0------------0--*||
------------------------------0h--4------||
--0---------0--------0-------------------||


  E   E  E  E  E  E  E  E  E  E  E  E     E  E  E  E  E  E  E  E  E  E  E  E   
--2h--4-----L--------------------------|--0-----------0-----------------------|
------------------0--L-----0--L--------|-----------4-----0--2--------0--------|
------------------0--L-----0--L-----0--|--------0-----------------0--------0--|
---------0-----0--------0--------0-----|-----0-----------------0--------2-----|
------------------------------4--------|--2--------0--------------------------|
--0---------0--------0-----------------|--------------------5--------4--------|


  E  E  E  E  E  E   E  E  E  E   E  E     E  E  E  E  E  E  E  E  E  E  E  E   
--0-----------0--2S--4--------2p--0-----|--0-----------0-----------------------|
-----------4-------------------------4--|-----------4-----0--2--------0--------|
--------0------------------0------------|--------0-----------------0--------0--|
-----0------------------0---------------|-----0-----------------0--------2-----|
--2--------0------------------0---------|--2--------0--------------------------|
---------------------5------------------|--------------------5--------4--------|


                                                                  >  >      
  E  E  E  E  E  E  E  E  E  E  Q        Q    E  E  E  E  Q    E  E  E  E   
--------------------------0--L--2S----|--4-------L-------------------------|
--------0--L-----2--L-----2--L--2-----|-------------7-----5-------L--4-----|
--1--------------1--L-----1--L--1-----|--4-------L--4-----4-------L--4-----|
-----0--------0--------0--------------|-------4--------4-------4--------0--|
--------------------------------------|------------------------------------|
--2--------2--------2--------2--------|--4-------4--------4-------4--------|


          >                                                                 
  Q    E  E  E  E  E  E  E  E  E  E     Q     E  E  E  E  Q    E  E  E  E   
--0-------L--0-----------------0-----|--4~-------L--------0-------L--------|
--2-------L--2-----4--------4-----7--|--------------7-----0-------L--0-----|
--0-------L--0-----------5-----------|--------------0----------------0-----|
-------0--------0-----5--------------|--------0--------0-------0-----------|
-------------------0--------0--------|--------------------2-------0--------|
--5-------5--------------------------|--0--------0----------------------4--|


          >                                                                  
  Q    E  E  E  E  E  E  E  E  E  E     Q    E  S  S E  E  Q    E  E  E  E   
--0-------L--0-----------------0-----|--4------------7-----4-------L--0-----|
--2-------L--2-----4--------4-----7--|----------1s-4-L-----3-------L--0-----|
--0-------L--0-----------5-----------|--------------------------------------|
-------0--------0-----5--------------|-------0--L-------0-------0-----------|
-------------------0--------0--------|--------------------------------------|
--5-------5--------------------------|--0------------------0-------0-----4--|


          >                                                                 
  Q    E  E  E  E  E  E  E  E  E  E     Q     E  E  E  E  Q    E  E  E  E   
--0-------L--0-----------------0-----|--4~-------L--------0-------L--------|
--2-------L--2-----4--------4-----7--|--------------7-----0-------L--0-----|
--0-------L--0-----------5-----------|--------------0----------------0-----|
-------0--------0-----5--------------|--------0--------0-------0-----------|
-------------------0--------0--------|--------------------2-------0--------|
--5-------5--------------------------|--0--------0----------------------4--|


          >                >                   >                >  >      
  Q    E  E  E  E  Q    E  E  E  E     Q    E  E  E  E  Q    E  E  E  E   
--0-------L--0----------------------|--0-------L--0-----4----------------|
--2-------L--2-----4-------L--4-----|--2-------L--2-----4-------L--7-----|
--0-------L--0-----3-------L--3-----|--1-------L--1-----4-------L--4-----|
-------0--------0-------2--------0--|-------0--------0-------4--------0--|
------------------------------------|------------------------------------|
--5-------5--------4-------4--------|--2-------2--------4-------4--------|


          >                                                                 
  Q    E  E  E  E  E  E  E  E  E  E     Q     E  E  E  E  Q    E  E  E  E   
--0-------L--0-----------------0-----|--4~-------L--------0-------L--------|
--2-------L--2-----4--------4-----7--|--------------7-----0-------L--0-----|
--0-------L--0-----------5-----------|--------------0----------------0-----|
-------0--------0-----5--------------|--------0--------0-------0-----------|
-------------------0--------0--------|--------------------2-------0--------|
--5-------5--------------------------|--0--------0----------------------4--|


          >                                                                  
  Q    E  E  E  E  E  E  E  E  E  E      Q    E  E  E  E  Q    E  E   E  E   
--0-------L--0-----------------0------|-------------------------------------|
--2-------L--2-----4--------4-----4b--|--L-------L--0--------------------0--|
--0-------L--0-----------5------------|-------------------0-------0h--1-----|
-------0--------0-----5---------------|-------0--------0-------0------------|
-------------------0--------0---------|-------------------------------------|
--5-------5---------------------------|--0-------0--------0-------0h--2--4--|


          >                                                                 
  Q    E  E  E  E  E  E  E  E  E  E     Q     E  E  E  E  Q    E  E  E  E   
--0-------L--0-----------------0-----|--4~-------L--------0-------L--------|
--2-------L--2-----4--------4-----7--|--------------7-----0-------L--0-----|
--0-------L--0-----------5-----------|--------------0----------------0-----|
-------0--------0-----5--------------|--------0--------0-------0-----------|
-------------------0--------0--------|--------------------2-------0--------|
--5-------5--------------------------|--0--------0----------------------4--|


          >                   >                >                >  >      
  Q    E  E  E  E  Q    E  E  E  E     Q    E  E  E  E  Q    E  E  E  E   
--0-------L--0----------------------|--0-------L--0-----2----------------|
--2-------L--2-----4-------L--4-----|--2-------L--2-----4-------L--4-----|
--0-------L--0-----3-------L--3-----|--1-------L--1-----3-------L--3-----|
-------0--------0-------2--------0--|-------0--------0-------2--------0--|
------------------------------------|------------------------------------|
--5-------5--------4-------4--------|--2-------2--------4-------4--------|


          >  >             >  >                >  >             >  >      
  Q    E  E  E  E  Q    E  E  E  E     Q    E  E  E  E  Q    E  E  E  E   
--4-------L--------2----------------|--0-------L--------2----------------|
--2-------L--2-----4-------L--4-----|--2-------L--2-----4-------L--4-----|
--1-------L--1-----3-------L--3-----|--1-------L--1-----3-------L--3-----|
-------0--------0-------2--------0--|-------0--------0-------2--------0--|
------------------------------------|------------------------------------|
--2-------2--------4-------4--------|--2-------2--------4-------4--------|


          >  >                >                                             
  Q    E  E  E  E  Q    E  E  E  E     E  E  E  E  E  E  E  E  E  E  E  E   
--4-------L--------0----------------|--0-----------------L-----------------|
--2-------L--2-----0-------L--4-----|--2-----------------L--------0--------|
--1-------L--1-----1-------L--1-----|--0-----0--------0--L-----0--------0--|
-------0--------0-------2--------0--|-----0--------0--------0--------2-----|
-------------------0-------0--------|--2--------2--------2--------0--------|
--2-------2-------------------------|--------------------------------------|


  E  E  E  E  E  E  E  E  E  E  E  E     E  E  E  E  E  E  E  E  E  E  E  E   
--------------------------------------|--------------------------------------|
--2-----------------L--------0--------|--2-----------------L--------0--------|
--------0--------0--------0--------0--|--------0--------0--------0--------0--|
-----0--------0--------0--------2-----|-----0--------0--------0--------2-----|
--2--------2--------2--------0--------|--2--------2--------2--------0--------|
--------------------------------------|--------------------------------------|


  E  E  E  E  E  E  E  E  E  Q.          E  E  E  E   E  E  E  E  E  E  E  E   
------------------------------------||---4--------2p--0-----------------0--2--|
--2-----------------L--------0------||-------------------4--L--------4--------|
--------0--------0--------0---------||*--------0------------------0-----------|
-----0--------0--------0------------||*-----0------------------2--------------|
--2--------2--------2--------0------||---2--------2---------0--------0--------|
------------------------------------||----------------------------------------|


  E  E  E  E  E  E  E  E  E  E   E  E     E  E  E  E   E  E  E  E  E  E  E  E   
--0---------------------------------0--|--4--------2p--0-----------------0--7--|
-----------2--------L--------2h--4-----|------------------4--L--------4--------|
--------0--------0--------0------------|--------0------------------0-----------|
-----0--------0--------0---------------|-----0------------------2--------------|
---------------------------------------|--2--------2---------0--------0--------|
--5--------5--------5--------5---------|---------------------------------------|


                             >          
  E  E  E  E  E  E  E  E  E  E   E  E   
--L--------L--9-----0---------------0--|
-----------------------------0h--2-----|
--------0-----------------0------------|
-----0-----------0-----0---------------|
---------------------------------------|
--5--------5--------5--------5---------|


                              >          
  E   E  E  E  E  E  E  E  E  E   E  E   
--2h--4-----L------------------------0--|
------------------0--L-----0--0h--2-----|
------------------0--L-----0--0---------|
---------0-----0--------0---------------|
----------------------------------------|
--0---------0--------0--------5---------|


  E   E  E  E  E  E  E  E  E  E   E  E     
--2h--4-----L----------------------------||
------------------0--L-----0--L----------||
------------------0--L-----0--L---------*||
---------0-----0--------0------------0--*||
------------------------------0h--4------||
--0---------0--------0-------------------||


                              >          
  E   E  E  E  E  E  E  E  E  E   E  E   
--2h--4-----L------------------------0--|
------------------0--L-----0--0h--2-----|
------------------0--L-----0--0---------|
---------0-----0--------0---------------|
----------------------------------------|
--0---------0--------0--------5---------|


                                             ^                  
  E   E  E  E  E  E  E  E  E  E   E  E       W.                 
--2h--4-----L------------------------0--|--2g4----------------||
------------------0--L-----0--0h--2-----|----0----------------||
------------------0--L-----0--0---------|----0----------------||
---------0-----0--------0---------------|----0----------------||
----------------------------------------|----0----------------||
--0---------0--------0--------5---------|----0----------------||




Duration Legend
---------------
W - whole
H - half
Q - quarter
E - 8th
S - 16th
T - 32nd
X - 64th
. - note dotted
|-n-|  - n-tuplets


Tablature Legend
----------------
L - tied note
x - dead note
g - grace note
(n) - ghost note
> - accentuded note
NH - natural harmonic
AH - artificial harmonic
TH - tapped harmonic
SH - semi harmonic
PH - pitch harmonic
h - hammer on
p - pull off
b - bend
br - bendRelease
pb - preBend
pbr - preBendRelease
brb - bendReleaseBend
\n/ - tremolo bar dip
\n - tremolo bar dive
-/n - tremolo bar Release up
/n\ - tremolo bar inverted dip
/n - tremolo bar return
-\n - tremolo bar Release down
S - shift slide
s - legato slide
/ -  slide into from below or out of upwards
\ -  slide into from above or out of downwards
~ - vibrato
W - wide vibrato
tr - trill
TP - tremolo picking
T - tapping
S - slap
P - pop
< - fade in
^ - brush up
v - brush down
Добавлено: 23.03.2012
Другие материалы по этой песне:

Страница создана 07.03.2012
http://primanota.ru/masaaki-kishibe/a-sea-of-the-clouds-chords.htm
Привет, Гость.
Предлагаем пройти революционный курс по гитаре.
Подарок от PrimaNota.Ru, забирай!