PrimaNota.ru - самый крупный в мире бесплатный архив песенных текстов, аккордов, табулатур и нот


Masaaki Endoh - Going My Way - таба, видео

Регистрация Запомнить меня
Войти через:  Facebook Google Twitter Vk Yandex Mail.ru

Masaaki Endoh - Going My Way - таба, видео

Печатать
Просмотров: 47
Уроки эстрадного вокала в Санкт-Петербурге
(/) Slide Up  (\) Slide Down  (h) Hammer On  (p) Pull Off  (b) Bend (r) Release (v) Vibrato

Intro:
E|-----------------------------------------|
B|-----------------------------------------|
G|-------5-3-3-3-5-5-6-6-8-8-6-6-6-6-6-6-8-|
D|-3-5-6-x-x-3-3-5-5-6-6-8-8-6-6-6-6-6-6-8-|
A|-3-5-6-3-1-1-1-3-3-4-4-6-6-4-4-4-4-4-4-6-|
E|-1-3-4-----------------------------------|

E|-----------------------------------------------------------------------|
B|---9b11r9-8-9-9-8-11-9---9-11-13h14p13-11-9-11-----9b11r9-8-9-9-8-11-9-|
G|-8---------------------8-----------------------8-8---------------------|
D|-----------------------------------------------------------------------|
A|-----------------------------------------------------------------------|
E|-----------------------------------------------------------------------|

E|-----------------15/18-15h16------|
B|---9-11-13h14p13-------------16---|
G|-8--------------------------------|
D|----------------------------------|
A|----------------------------------|
E|----------------------------------|
Добавлено: 13.12.2015
Вам также может быть интересно:
Другие материалы по этой песне:
  • Аккорды и текст

Страница создана 13.12.2015
http://primanota.ru/masaaki-endoh/going-my-way-chords.htm
Привет, Гость.
Предлагаем пройти революционный курс по гитаре.
Подарок от PrimaNota.Ru, забирай!