PrimaNota.ru - самый крупный в мире бесплатный архив песенных текстов, аккордов, табулатур и нот


Maryzark - Those Moments Too Late - таба, видео

Регистрация Запомнить меня
Войти через:  Facebook Google Twitter Vk Yandex Mail.ru

Maryzark - Those Moments Too Late - таба, видео

Печатать
Просмотров: 58
By-Francis
Location - Carmelite, Lucena City
Cp #- 09109712432
E-add- f_sario@yahoo.com  (friendster)add me!
School- Sacred Heart College


standard tuning- ebgDAE


Intro-
1.
Guitar1
|-----5-5555555-------7--77777777-------|
|----7--7777777------7---77777777-------|
|---7---7777777-----7----77777777-------|2x
|--7----7777777----9-----99999999-------|
|-5-----5555555---9------99999999-------|
|----------------7-------77777777-------|

Guitar2 @ 2nD TIME
|----------------------------------|
|--10-9-10--10-9-10----------------|
|----------------------------------|
|----------------------------------|
|----------------------------------|
|----------------------------------|

2.

Guitar1
|-----------------------------------------------------|
|-----------------------------------------------------|
|--7777777777--------------777777777777---------------|
|--7777777777-999999999999-777777777777--999999999999-|3x
|--5555555555-999999999999-555555555555--999999999999-|
|-------------777777777777---------------777777777777-|


Guitar2
|-12-9-10-9-----12-9-10-9-------12-9-10-9-------12-9-10-9------|
|----------12-10----------12-10-----------12-10----------------|
|--------------------------------------------------------------|
|--------------------------------------------------------------|
|--------------------------------------------------------------|
|--------------------------------------------------------------|

|-12-9-10-9-----12-9-10-9-------12-9-10-9-------12-9-10-9------|
|----------12-10----------12-10-----------12-10----------------|
|--------------------------------------------------------------|
|--------------------------------------------------------------|
|--------------------------------------------------------------|
|--------------------------------------------------------------|

                                            not sure a this part
|-12-9-10-9-----12-9-10-9------------------------------------------|
|----------12-10----------12-10---10-9-10--------------------------|
|-----------------------------------------99999999999999999999999--|
|------------------------------------------------------------------|
|------------------------------------------------------------------|
|------------------------------------------------------------------|
                                                                                    not sure a this part
|---------------------------------------------------------------|
|----9/10-10--------------------------9/10-10-------------------|
|-999--------99999999999999999999999----------9999999999--------|
|---------------------------------------------------------------|
|---------------------------------------------------------------|
|---------------------------------------------------------------|

Preverse
|-----------------------------------------------------|
|---9----9---10----9----------------------------------|
|-9---9---------9-----9-------------------------------|
|-----------------------------------------------------|
|-----------------------------------------------------|
|-----------------------------------------------------|

Verse-Palm muted
|---------------------------|
|---------------------------|
|--7777777777---------------|
|--7777777777-999999999999--|4x
|--5555555555-999999999999--|
|-------------777777777777--|


Guitar2 @ 3rd time
|-----------------------------------------------------|
|-----------------------------------------------------|
|-9*------9*----9*-----6*---6*---6*-------------------|
|---7---------7----------4-----4----------------------|
|-----------------------------------------------------|
|-----------------------------------------------------|


|-----------------------------------------------------|
|-----------------------------------------------------|
|-9*------9*----9*-----6*---6***--7*6*-6--------------|
|---7---------7----------4--------------4-------------|
|-----------------------------------------------------|
|-----------------------------------------------------|

Refrain
Guitar
|-----------------------------------------------------|
|-----------------------------------------------------|
|-----------------------------------------------------|
|--5555555-4444444-5555555-4444444--------------------|
|--5555555-4444444-5555555-4444444--------------------|
|--3333333-2222222-3333333-2222222--------------------|

Chorus
                                 PM  PM  
|----------------------------------------------------------|
|----------------------------------------------------------|
|-7777777777-44444444--------------------------------------|
|-7777777777-44444444-777777777--44444444---55555----------|2x
|-5555555555-22222222-777777777--44444444---55555----------|
|---------------------555555555--22222222---33333----------|

interlude
|---------------------------|
|---------------------------|
|--7777777777---------------|
|--7777777777-999999999999--|2x
|--5555555555-999999999999--|
|-------------777777777777--|

Repeat verese,refrain,chorus,verse,chorus

after chorus?
|-----------------------------------------------------|
|-9----9-----12-----12------10------------------------|
|---9------9-----9-------9----------9-----------------|
|-----------------------------------------------------|
|-----------------------------------------------------|
|-----------------------------------------------------|


interlude
|---------------------------|
|---------------------------|
|--7777777777---------------|
|--7777777777-999999999999--|2x
|--5555555555-999999999999--|
|-------------777777777777--|

Bridge

|------------------------------------------------------|
|------------------------------------------------------|
|-7777777777-44444444----------------------------------|
|-7777777777-44444444-777777777-----555555555----------|2x
|-5555555555-22222222-777777777-----555555555----------|
|---------------------555555555-----333333333----------|

chorus-end
|----------------------------------------------------------|
|----------------------------------------------------------|
|-7777777777-44444444--------------------------------------|
|-7777777777-44444444-777777777--44444444---55555----------|2x
|-5555555555-22222222-777777777--44444444---55555----------|
|---------------------555555555--22222222---33333----------|

        di me xur d2 pirated kasi ung cd ko ..di ayos ung sounds..hehehe
|----------------------------------------10--------------------10---------|
|-----------------------------------8/10----10---8/10------8/10--10-------|
|-7777777777-44444444--------------------------------7b9p--------------7~-|
|-7777777777-44444444-777777777--44x----------44x--------44x-------4-5-7~-|
|-5555555555-22222222-777777777--44x----------44x--------44x-------4-5-5~-|
|---------------------555555555--22x----------22x--------22x-------2-3----|


f_sario@yahoo.com 
rakiztahz_03@yahoo.com
Добавлено: 27.08.2013
Другие материалы по этой песне:
  • Аккорды и текст

Страница создана 27.08.2013
http://primanota.ru/maryzark/those-moments-too-late-chords.htm
Привет, Гость.
Предлагаем пройти революционный курс по гитаре.
Подарок от PrimaNota.Ru, забирай!