PrimaNota.ru - самый крупный в мире бесплатный архив песенных текстов, аккордов, табулатур и нот


Mary Timony - Valley Of 1000 Perfumes - таба, видео

Регистрация Запомнить меня
Войти через:  Facebook Google Twitter Vk Yandex Mail.ru

Mary Timony - Valley Of 1000 Perfumes - таба, видео

Печатать
Просмотров: 68
Song:=Valley of 1000 Perfumes
Artist:=Mary Timony
Album:=Mountains
Transcribed by:=Greg D
***********************************

VERSES

       Why...                                              ...of me?
e --------2---0-----------------------------------------------------
B ---2------------2------0--2-3------3-5-3-----2------2-3-2-----0--
G ---------------------------------2----------2-----2---------2-----

e -------------------------2-----2-----2----2----------------------
B ------ 0-----0-----0-----0-----0-----0----0---------------------
G ---2-----2-----2-----2-----2-----2-----2-----------------------


       Is...                                                ... war?
e -----------2--2--0------------------------------------------------
B ---2---2--------------2----0-0--2-3-----3-5-3----2-----2-3-2--- 0-
G --------------------------------------2---------2----2--------2---

e -------------------------2-----2-----2----2--------------
B ------ 0-----0-----0-----0-----0-----0----0------------
G ---2-----2-----2-----2-----2-----2-----2---------------

CHORUS

                         But you...

e --------------------------------------------------------------------
B --------------------------------------------------------------------
G-----2----2----4----4-------4----4----4-------4----4----4------4----4
D ----2----2----4----4-------4----4----4-------4----4----4------4----4
A ----0----0----2----2-------2----2----2-------2----2----2------2----2
E ----0----0----2----2-------2----2----2-------2----2----2------2----2

                         And more...

e -------------------------------------------------------------------
B -------------------------------------------------------------------
G-----2----2----4----4------4----4----4-------4----4----4------4----4
D ----2----2----4----4------4----4----4-------4----4----4------4----4
A ----0----0----2----2------2----2----2-------2----2----2------2----2
E ----0----0----2----2------2----2----2-------2----2----2------2----2

                         Tell me...

e -------------------------------------------------------2----2----2
B -------------------------------------------------------3----3----3
G----4----4----2----2------2----2----2-------2----2------2----2----2
D ---4----4----2----2------2----2----2-------2----2------0----0----0
A ---2----2----0----0------0----0----0-------0----0------0----0----0
E ---2----2----0----0------0----0----0-------0----0------0----0----0

                         And..

e ----2----2----0----0-------0----0----0--------0----0----0
B ----3----3----2----2-------2----2----2--------2----2----2
G-----2----2----2----2-------2----2----2--------2----2----2
D ----0----0----2----2-------2----2----2--------2----2----2
A ----0----0----0----0-------0----0----0--------0----0----0
E ----0----0----0----0-------0----0----0--------0----0----0

                       ... in you

e ---0----0------0----0-------------------------------------------
B ---2----2------2----2------2h3p2-----2h3p2------2h3p2----0-0-0-3
G----2----2------2----2--------------2----------2-----------------
D ---2----2------2----2------------------------------------------
A ---0----0------0----0------------------------------------------
E ---0----0------0----0-----------------------------------------

e-----------------------------2--------2----------
B--2h3p2-----2h3p2----------------------------
G-----------2------------2-------2--------------


The rhythm in the first four bars of the verses changes each time
around, but it follows the vocals, so it's pretty easy to get.  The
chorus is also repeated before we get the plucking bridge part the third
time around.  If the rhythms I wrote are off, don't look so shocked.
It's pretty clear to hear on the CD.

Send any comments-corrections-whimsy to:
gregd@alumni.princeton.edu



     
Добавлено: 24.08.2013
Другие материалы по этой песне:
  • Аккорды и текст

Страница создана 24.08.2013
http://primanota.ru/mary-timony/valley-of-1000-perfumes-chords.htm
Привет, Гость.
Предлагаем пройти революционный курс по гитаре.
Подарок от PrimaNota.Ru, забирай!