PrimaNota.ru - самый крупный в мире бесплатный архив песенных текстов, аккордов, табулатур и нот


Mary Timony - Blood Tree - таба, видео

Регистрация Запомнить меня
Войти через:  Facebook Google Twitter Vk Yandex Mail.ru

Mary Timony - Blood Tree - таба, видео

Печатать
Просмотров: 110
Уроки эстрадного вокала в Санкт-Петербурге
Blood Tree tab
Mary Timony

tabbed by Kevin S
kswann77@hotmail.com

sent by Greg D
gregd@alumni.princeton.edu

_____________________________________________


Part A

E       --------------------------
B       --------------------------
G       ----7--7-8-7--5-5--5-5--5-
D       -0------------------------
A       --------------------------
E       --------------------------

Part B

E       --------------------------
B       --------------------------
G       ----8--8-7-8--5-5--5-5--5-
D       -0------------------------
A       --------------------------
E       --------------------------

Part C

E       -----------------------------
B       -----------------------------
G       -2---0---2-0-2---0-2-0-5-4-2-
D       -----------------------------
A       -----------------------------
E       -----------------------------

_____________________________________________


Intro

Part A  x 2
Part B  x 2


Verse

Part A  x 2
Part B  x 2
Part A  x 2
Part B  x 2


Chorus

G               D              A        G
I don't         care           about    you

A               D              A        G
and             whatever it is that you do

F  G    A                      G        F
do ing  drugs                  popping  p....

                G                       F
shouting        out your window at      g....


Repeat, then part C

_____________________________________________


Chords

         G       D       A       F


E       ---     ---     ---     ---
B       -3-     -7-     -5-     -1-
G       -4-     -7-     -6-     -2-
D       -5-     -7-     -7-     -3-
A       -5-     -5-     -7-     -3-
E       -3-     ---     -5-     -1-

______________________________________________


     
Добавлено: 15.08.2013
Другие материалы по этой песне:
  • Аккорды и текст

Страница создана 15.08.2013
http://primanota.ru/mary-timony/blood-tree-chords.htm
Привет, Гость.
Предлагаем пройти революционный курс по гитаре.
Подарок от PrimaNota.Ru, забирай!