PrimaNota.ru - самый крупный в мире бесплатный архив песенных текстов, аккордов, табулатур и нот


Mary Jane Kelly - Weak Corrupt Worthless Restless - таба, видео

Регистрация Запомнить меня
Войти через:  Facebook Google Twitter Vk Yandex Mail.ru

Mary Jane Kelly - Weak Corrupt Worthless Restless - таба, видео

Печатать
Просмотров: 69
http://www.myspace.com/maryjanekellyhc
They are from Australia, signed to Trial & Error Records

-----------------------------------------------------------------
Weak, Corrupt, Worhtless, & Restless - Mary Jane Kelly
-----------------------------------------------------------------
Tabbed by: Jake Miller (millarso)
Email: millarso2.0@gmail.com
Tuning: Drop C

Intro (1 Guitar)
D|-----------------------------------------------------------------------|
A|-10---------------------------------10---------------------------------|
F|-----10-7-------------------------------10-7---------------------------|
C|----------7-6-6-6-6-6-6-6-6-6-6-6-6----------7-6-6-6-6-6-3-3-3-6-3-3---|
G|-----------------------------------------------------------------------|
C|-----------------------------------------------------------------------|

D|-----------------------------------------------------------------------|
A|-10-------------------------------9-10---------------------------------|
F|-----10-7-----------------------7-------10-7---------------------------|
C|----------7-6-6-6-6-6-6-6-6-6-6--------------7-6-6-6-6-6-3-3-3-6-3-3-3-|
G|-----------------------------------------------------------------------|
C|-----------------------------------------------------------------------|

Section 1
Both Guitars
D|------------------------------------------------------------------|
A|------------------------------------------------------------------|
F|-14-------------------------------14------------------------------|
C|-14--15-12-7-6-6-6-6-6-6-6-6-6-6--14--15-12-7-6-6-6-6-6-3-3-3-6-3-|x2
G|-12--15-12-7-6-6-6-6-6-6-6-6-6-6--12--15-12-7-6-6-6-6-6-3-3-3-6-3-|
C|-----15-12-7-6-6-6-6-6-6-6-6-6-6------15-12-7-6-6-6-6-6-3-3-3-6-3-|
                                                            . .  

D|------------------------------------------------------------|
A|------------------------------------------------------------|
F|-14---------------------------14----------------------------|
C|-14--15-12-7-6--6--6--6--6-6--14--15-12-7-6--6--6-3-3-3-6-3-|
G|-12--15-12-7-6--6--6--6--6-6--12--15-12-7-6--6--6-3-3-3-6-3-|
C|-----15-12-7-6--6--6--6--6-6------15-12-7-6--6--6-3-3-3-6-3-|
                                                      . .   

D|--------------------------------------------------------------------------------------|
A|--------------------------------------------------------------------------------------|
F|-14---------------------------14-------------------------------/7--5------------------|
C|-14--15-12-7------------------14--15-12-7-6-6-6-6-6-3-3-3-6-3--/7--5--6--5--0-3-5-3-0-|
G|-12--15-12-7------------------12--15-12-7-6-6-6-6-6-3-3-3-6-3--/5--3--6--5--0-3-5-3-0-|
C|-----15-12-7-6~-6~-6~-6~-6~-------15-12-7-6-6-6-6-6-3-3-3-6-3---------6--5--0-3-5-3-0-|
                                                        . .   

Section 2
D|--------------------------------------------------------|
A|--------------------------------------------------------|
F|----------5s7-----------------5s7---5s7-----------------|
C|-0--------5s7--6-666-6-6-6----5s7---5s7-----6-666-3-7-6-|x2
G|-0-000-0--3s5--x-xxx-x-x-x--0-3s5-0-3s5-0-0-x-xxx-x-x-x-|
C|-0-000-0-------6-666-6-6-6--0-----0-----0-0-6-666-3-7-6-|
     ... .                    .     .     . .
D|------------------------------------------------------------|
A|------------------gtr-1-------------------------------------|
F|-5s7---5s7---(5555555555555555)---5s7---5s7-----------------|
C|-5s7---5s7------------------------5s7---5s7-----6-666-3-7-6-|x2
G|-3s5-0-3s5----------------------0-3s5-0-3s5-0-0-x-xxx-x-x-x-|
C|-----0-----0--6666666666666666--0-----0-----0-0-6-666-3-7-6-|
       .                          .     .     . .

D|-------------|
A|-------------|
F|-------------|
C|-7-777-6--3--|
G|-x-xxx-x--x--|
C|-7-777-6--3--|

Section 3
Both Guitars
D|------------------------------------------------------|
A|------------------------------------------------------|
F|-----7-----7-----7-------------7---8b-----7---11-10-8-|
C|-0---7-6---7--0--7-6-3-6-3-0---7-6-x---0--7-6-11-10-8-|x2
G|-0---5-6---5--0--5-6-3-6-3-0---5-6-6b--0--5-6--9--8-6-|
C|-0-----6------0----6-3-6-3-0-----6-----0----6---------|

|-----------------|
|-----------------|
|-8-7-5-----------|
|-8-7-5---6-5-3-0-|
|-6-5-3---6-5-3-0-|
|---------6-5-3-0-|

Section 4
Guitar 1
D|---------------------------------------------------------------|
A|---------------------------------------------------------------|
F|---------------------------------------------------------------|
C|---------3--------------------0----------3---/5-3---/5-3---3---|
G|-3-5-3-0---5--5----5----5---5-0--3-5-3-0---5------5------5---5-|
C|----------------3----4----5---0--------------------------------|

Guitar 2
D|---------------------------------------------------------------|
A|---------------------------------------------------------------|
F|---------------------------------------------------------------|
C|------------------------------0--------------------------------|
G|------------------------------0--------------------------------|
C|------------------------------0--------------------------------|

Guitar 1
D|----------------------------------------------------------------------|
A|----------------------------------------------------------------------|
F|----------------------------------------------------------------------|
C|-0----------3-----------------------0--0---------3------------3-------|
G|-0--3h5p3p0---5---5-----5-----5---5-0--0-3h5p3p0---5--3h5p3p0---------|
C|-0--------------0---3-3---4-4---5---0--0------------------------6-5-3-|

Guitar 2
D|--------------------------------------------------------------------10----|
A|--------------------------------------------------------------------13b15-|
F|--------------------------------------------------------------------------|
C|-0----------------------------------0--0-----------0----------------------|
G|-0----------------------5-----5---5-0--0-----------0----------------------|
C|-0------------------3-3---4-4---5---0--0-----------0----------------------|

Section 5
Both Guitars
D|---------------------------------------------------------------------|
A|---------------------------------------------------------------------|
F|---------------------------------------------------------------------|
C|-0----------3---------------------0----------3-----/5-3---/5-3---3---|
G|-0--3h5p3p0---5---5----5----5---5-0--3h5p3p0---5-0------5------5---5-|
C|-0--------------0---3----4----5---0--------------0-------------------|
                                                   .
D|---------------------------------------------------------------------|
A|---------------------------------------------------------------------|
F|---------------------------------------------------/7-5--------------|
C|-0----------3---------------------0----------3-----/5-3---/7---------|
G|-0--3h5p3p0---5---5----5----5---5-0--3h5p3p0---5-0------0-/5-0-----5-|
C|-0--------------0---3----4----5---0--------------0------0----0-5-6---|
                                                   .      .    .
Section 6
Guitar 1
D|-------------------------------------------------------------------------|
A|-------------------------------------------------------------------------|
F|------------2--------------------------------2---------------------------|
C|-0--2h4p2p0---4-------------------0--2h4p2p0---4---/5--6-5-3-6-5-3h5p3p0-|
G|-0----------------5----5----5---5-0--------------0-----------------------|
C|-0--------------0---3----4----5---0--------------0-----------------------|
                                                   .
Guitar 2
D|-----------------------------------------------------------------10------|
A|-----------------------------------------------------------------13b15---|
F|-------------------------------------------------------------------------|
C|-0----------3---------------------0----------3---------------------------|
G|-0--3h5p3p0---5---5----5----5---5-0--3h5p3p0---5-------------------------|
C|-0--------------0---3----4----5---0--------------------------------------|
                                                   
Guitar 1
D|------------------------------------------------------------------------------------|
A|------------------------------------------------------------------------------------|
F|------------------------------------------------------------------------------------|
C|-0----------3---------------------0--0---------3------------3-------0---0-----------|
G|-0--3h5p3p0---5---5----5----5---5-0--0-3h5p3p0---5--3h5p3p0---------0---0(let-ring)-|
C|-0--------------0---3----4----5---0--0------------------------6-5-3-0---0-----------|

Guitar 2
D|------------------------------------------------------------------------------------|
A|------------------------------------------------------------------------------------|
F|------------------------------------------------------------------------------------|
C|-0----------3---------------------0--0-----------0---------------15\0---0-----------|
G|-0--3h5p3p0---5---5----5----5---5-0--0-----------0---------------15\0---0(let-ring)-|
C|-0--------------0---3----4----5---0--0-----------0---------------15\0---0-----------|

Awesome song by an awesome band that doesn't get enough credit.
Have fun playing this one.
Please rate & comment.
Thanks,
millarso
Добавлено: 29.11.2013
Другие материалы по этой песне:
  • Аккорды и текст

Страница создана 29.11.2013
http://primanota.ru/mary-jane-kelly/weak-corrupt-worthless-restless-chords.htm
Привет, Гость.
Предлагаем пройти революционный курс по гитаре.
Подарок от PrimaNota.Ru, забирай!