PrimaNota.ru - самый крупный в мире бесплатный архив песенных текстов, аккордов, табулатур и нот


Mary And Wally Barnett - Scrumpy - таба, видео

Регистрация Запомнить меня
Войти через:  Facebook Google Twitter Vk Yandex Mail.ru

Mary And Wally Barnett - Scrumpy - таба, видео

Печатать
Просмотров: 80
-------------------------------------------------------------------------------
                       SCRUMPY - Mary and Wally Barnett
-------------------------------------------------------------------------------
Tabbed by: EdwardMasters
E-mail: edwardmasters99@gmail.com

Tuning: Standard (EADGBE)
Key: F major

Lol I played this song on xylophone for my school band solo contest in Grain Valley. 
My friend Cauy wanted me to tab it for guitar so yeah.. I'm bored enough to do it cx

Happy Tempo
e|----------------------------------------------------------------|
B|-1-------1------------------------------------------------------|
G|-----2-------2---3-5-3-2-0---3---2-----------2---0--------------|
D|-------------------------------------3---3----------------------|
A|-----------------------------------------------------3---3------|
E|----------------------------------------------------------------|

e|----------------------------------------------------------------|
B|-1-------1------------------------------------------------------|
G|-----2-------2---3-5-3-2-0---3---2------------------------------|
D|-------------------------------------3-------2---3--------------|
A|-----------------------------------------3----------------------|
E|----------------------------------------------------------------|



e|----------------------------------------------------------------|
B|-----1-------1-----------------------1-------1-------1---1------|
G|-0-------0-------2-3-2-0-----2---0-------0-------2--------------|
D|-------------------------3--------------------------------------|
A|----------------------------------------------------------------|
E|----------------------------------------------------------------|

e|----------------------------------------------------------------|
B|-----1-------1-----------------------1--------------------------|
G|-0-------0-------2-3-2-0-----2---0-------2---4---5--------------|
D|-------------------------3--------------------------------------|
A|---------------------------------------------------------3------|
E|----------------------------------------------------------------|



e|----------------------------------------------------------------|
B|-1-------1------------------------------------------------------|
G|-----2-------2---3-5-3-2-0---3---2-----------2---0--------------|
D|-------------------------------------3---3----------------------|
A|-----------------------------------------------------3---3------|
E|----------------------------------------------------------------|

e|----------------------------------------------------------------|
B|-1-------1------------------------------------------------------|
G|-----2-------2---3-5-3-2-0---3---2------------------------------|
D|-------------------------------------3-------2---3--------------|
A|-----------------------------------------3----------------------|
E|----------------------------------------------------------------|



e|-1-------0------------------------------------------------------|
B|-----------------3-------1-------3------------------------------|
G|-------------------------------------3---0----------------------|
D|---------------------------------------------3---2--------------|
A|----------------------------------------------------------------|
E|----------------------------------------------------------------|

e|-0--------------------------------------------------------------|
B|---------3-------1---------------3---1--------------------------|
G|-------------------------3---------------2---0---2--------------|
D|----------------------------------------------------------------|
A|----------------------------------------------------------------|
E|----------------------------------------------------------------|

e|----------------------------------------------------------------|
B|-3-------1-----------------------------------1------------------|
G|-----------------3-------2---------------2-------3--------------|
D|---------------------------------0---3--------------------------|
A|----------------------------------------------------------------|
E|----------------------------------------------------------------|

e|----------------------------------------------------------------|
B|-1--------------------------------------------------------------|
G|---------3---------------------------------------2--------------|
D|-----------------0-------2-------3------------------------------|
A|----------------------------------------------------------------|
E|----------------------------------------------------------------|



e|----------------------------------------------------------------|
B|-1-------1------------------------------------------------------|
G|-----2-------2---3-5-3-2-0---3---2-----------2---0--------------|
D|-------------------------------------3---3----------------------|
A|-----------------------------------------------------3---3------|
E|----------------------------------------------------------------|

e|----------------------------------------------------------------|
B|-1-------1------------------------------------------------------|
G|-----2-------2---3-5-3-2-0---3---2------------------------------|
D|-------------------------------------3-------2---3--------------|
A|-----------------------------------------3----------------------|
E|----------------------------------------------------------------|



e|----------------------------------------------------------------|
B|-1-------1------------------------------------------------------|
G|-----2-------2-------------------3---0---3---0------------------|
D|----------------------------------------------------------------|
A|----------------------------------------------------------------|
E|----------------------------------------------------------------|

e|----------------------------------------------------------------|
B|---------------0-1----------------------------------------------|
G|---------0-2-3--------------------------------------------------|
D|---0-2-3--------------------2---3-------------------------------|
A|-3--------------------------------------------------------------|
E|----------------------------------------------------------------|

************************************

| /   slide up
| \   slide down
| h   hammer-on
| p   pull-off
| ~   vibrato
| +   harmonic
| x   Mute note
| b   Bend
| pb  Pre-bend
| br  Bend release
| pbr Pre-bend release
| brb Bend release bend

************************************
Добавлено: 26.12.2015
Другие материалы по этой песне:
  • Аккорды и текст

Страница создана 26.12.2015
http://primanota.ru/mary-and-wally-barnett/scrumpy-chords.htm
Привет, Гость.
Предлагаем пройти революционный курс по гитаре.
Подарок от PrimaNota.Ru, забирай!