PrimaNota.ru - самый крупный в мире бесплатный архив песенных текстов, аккордов, табулатур и нот


Marvin Gaye - Distant Lover - текст песни, бас-таба, видео

Регистрация Запомнить меня
Войти через:  Facebook Google Twitter Vk Yandex Mail.ru

Marvin Gaye - Distant Lover - текст песни, бас-таба, видео

Печатать
Просмотров: 130
Авторы: Sandra Greene
Авторы музыки: Marvin Gaye, Gwen Fuqua

Artist:Marvin Gaye
Song:Distant Lover
Tabbed by:Dylan dylan Kain

i got this marvin gaye greatest motown hits and i just figured out this song
because this site has like no marvin gaye songs

|------------------------|------------------------|------------------------|
|--------------------2---|2-----------------------|------------------------|
|--------2-2-2---4-------|--------------------4---|2---------------4---2---|
|------------------------|------------------------|------------------------|

     
|------------------------|------------------------|------------------------|
|2-----------------------|------------------------|------------------------|
|----------------4---2---|--------------------2---|3/4---------------------|
|------------------------|0-----------0---4-------|------------------------|

       
|--------------------8---|6-----------------------|------------------------|
|6---------------9-------|--------6---6-------6---|------------------------|
|------------------------|----------------7-------|4-----------4h--2---0---|
|------------------------|------------------------|------------------------|

            
|------------------------|--------------------1---|------------------------|
|------------------------|----------------2-------|4-----------------------|
|------------------------|0-----------4-----------|----------------0---4---|
|2---------------------2-|------------------------|------------------------|

      
|--------------1-4---1---|4---------------6---7---|8---------------9---10--|
|------------4-----------|------------------------|------------------------|
|------------------------|------------------------|------------------------|
|2-----------------------|------------------------|------------------------|

          
|11--------------10--11--|----------6---6-9-6-----|------------------------|
|------------------------|9-----------9-------9---|------------------------|
|------------------------|------------------------|7-------------------4---|
|------------------------|------------------------|------------------------|

         
|------------------------|------------------------|------------------------|
|------------------------|------------------------|------------------------|
|2---------------4---2---|----------------------2-|--------------------2---|
|------------------------|0-------------------0---|0-------0-------4-------|

        
|------------------------|------------------------|----------------6-------|
|------------------------|------------------------|------------------------|
|3/4---------------------|----------------2---3---|4-------------------7---|
|------------------------|4-----------------------|------------------------|

        
|------------------------|------------------------|------------------------|
|6-----------------------|------------------------|----------------2---2-3-|
|--------4---------------|------------------------|0-----------4-----4-----|
|------------4-------3---|2---2-------------------|------------------------|

         
|------------------------|------------------------|----------------3---4---|
|4-----------------------|------------------------|------------------------|
|----------------0---4---|--------------------2---|2---2-------------------|
|------------------------|2-----------2---4-------|------------------------|

         
|------------------------|----------------2---4---|------------------------|
|------------------------|------------------------|----------------2-------|
|2-----------------------|2-----------------------|2-----------2-4-----4---|
|----------------2---4---|------------------------|------------------------|

          
|------------------------|------------------------|------------------------|
|2-----------------------|2-----------2-------2---|--------------------2---|
|----------------------2-|------------------------|0-----------------------|
|------------------------|------------------------|------------------------|

          
|2-------------------0---|------------------------|----0---2---------------|
|------------0---2-------|----------------0---1---|2-----------------------|
|------------------------|0-----------------------|------------------------|
|------------------------|------------------------|------------0---3---4---|

            
|------------------------|2-----------2---0---2---|------------------------|
|--------------------2---|----------2---2---------|----------------0---2---|
|0-----------------------|------------------------|0-----------------------|
|------------------------|------------------------|------------------------|

 |            
|------------------------|----------------------3-|4---------------2---4---|
|------------------------|------------------------|------------4-----------|
|0-----------0-------4---|2-----------------------|------------------------|
|----------------2-------|------------------------|------------------------|

          
|--------------------2---|4---------4-------------|----------------6---5---|
|----------------4-------|------------1---2---3---|------------------------|
|2-----------------------|------------------------|------------------------|
|------------------------|------------------------|7-----------------------|

    
|4---------4-------------|----------------3/4-4---|----------4-------------|
|------------1---2---3---|------------------------|------------------------|
|------------------------|2-----------------------|2-----------2---2---2-4-|
|------------------------|------------------------|------------------------|

        
|------------------------|------------------------|------------------------|
|------------------------|------------------------|------------------------|
|--------------------4---|2---------------3/4-2---|------------------------|
|0---0-------------------|------------------------|0-----------------------|

          
|------------------------|------------------------|----------------8---7---|
|------------------------|------------------------|6-----------------------|
|----------------2---3---|3/4---------------------|------------------------|
|0-------4---------------|------------------------|------------------------|

          
|6-----------------------|------------------------|------------------------|
|------------6-------6---|------------------------|------------------------|
|----------------7-------|4-------2---------------|------------------------|
|------------------------|----------------0---1---|2-----------------------|

           
|------------------------|------------------------|------------------------|
|----------------2---2---|4-----------------------|------------------------|
|0-0---------4-----4-----|----------------0---4---|----------4-----2-------|
|------------------------|------------------------|2-----------2-4-----4---|

 
|------------------------|------------------------|--4-------4-4---2-------|
|------------------------|------------------------|--------------------4---|
|2-2---------------------|2---------4---------2---|2-----------------------|
|----------------------4-|------------2---4-----4-|------------------------|

        
|----------4-------------|------------------------|------------------------|
|----------------2-------|2-----------------------|2-----------2-------2---|
|2-----------2-4-----4---|----------------------2-|------------------------|
|------------------------|------------------------|------------------------|

           
|------------------------|2-------0---2-----------|------------------------|
|------------------------|----2-----------0---2---|----------------------2-|
|0-----------------------|------------------------|0---0-------------------|
|------------------------|------------------------|------------------------|

          
|2---2---------------0---|------------------------|------------------------|
|------------0---2-------|----------------0---1---|2---2-------------------|
|------------------------|0---0-------------------|------------------------|
|------------------------|------------------------|--------0-------3---4---|

 |             
|--------------------2---|------------------------|----------------2---3---|
|----------------2-------|------------------------|------------------------|
|0---0-------------------|0---0-------0---0---1---|2---2-------------------|
|------------------------|------------------------|------------------------|

        
|4---4-----------2-------|----------------2---3---|4---4-------2---4-2-----|
|--------------------4---|------------------------|----------4---4-----4---|
|------------------------|2---2-------------------|----------------------0-|
|------------------------|------------------------|------------------------|

         
|------------------------|4---------4-------------|--------4-------------4-|
|----------------1---2---|------------1---2---4---|------------------------|
|2-----------------------|------------------------|2---2-------2---2-------|
|------------------------|------------------------|------------------------|

         
|----------4-------------|------------------------|------------------------|
|------------------------|------------------------|------------------------|
|2---2-------2---2---4---|--------------------4---|2---------------3/4-2---|
|----------------------4-|0-----------------------|------------------------|

           
|------------------------|------------------------|------------------------|
|2-----------------------|------------------------|------------------------|
|----------------------2-|--------------------2---|2/4-----------------4---|
|------------------------|0-----------0---4-------|------------------------|

           
|----------------8---7---|6-----------------------|------6-----------------|
|4/6-6-------------------|--------6-----------6---|------------------------|
|------------------------|----------------7-------|4-----------4---3-------|
|------------------------|------------------------|--------------------0-0-|

          
|------------------------|------------------------|------------------------|
|------------------------|----------------2---3---|4-----------------------|
|------------------------|0-----------4-----------|----------------0---4---|
|2-------------------1---|------------------------|------------------------|

            
|--------------------6---|4---------------6---7---|8---------------9---10--|
|------------4---6-------|------------------------|------------------------|
|------------------------|------------------------|------------------------|
|2-----------------------|------------------------|------------------------|

            
|16----------------------|------------------------|------------------------|
|------------------------|------------------------|------------------------|
|------------------------|------------------------|------------------------|
|------------------------|12----------------------|------------------------|
Добавлено: 30.06.2012
Другие материалы по этой песне:
  • Аккорды и текст

Страница создана 13.03.2012
http://primanota.ru/marvin-gaye/distant-lover-chords.htm
Привет, Гость.
Предлагаем пройти революционный курс по гитаре.
Подарок от PrimaNota.Ru, забирай!