PrimaNota.ru - самый крупный в мире бесплатный архив песенных текстов, аккордов, табулатур и нот


Marty Schwartz - Unknown Song - таба, видео

Регистрация Запомнить меня
Войти через:  Facebook Google Twitter Vk Yandex Mail.ru

Marty Schwartz - Unknown Song - таба, видео

Печатать
Просмотров: 67
Hello, this is the song that marty schwartz plays on a telecaster demo, the song has no 
name. It Is in Standard tuning. You can find the video
here: http://www.youtube.com/watch?v=80JlobMp-9s

email me at wadeschnoor@yahoo.com

Marty's Website: http://www.guitarjamz.com/

Tab Key:

H=Hammer On

P=Pull Off

SLD=Slide Down

M=Mute

X=Not Played

Chords Used:

A Major Bar Chord
E|-------------5--------------|
A|-------------7--------------|
D|-------------7--------------|
G|-------------6--------------|
B|-------------5--------------|
E|-------------5--------------|

E Major Bar Chord
E|-------------X--------------|
A|-------------7--------------|
D|-------------9--------------|
G|-------------9--------------|
B|-------------9--------------|
E|-------------7--------------|

F# 7 Bar Chord
E|-------------X--------------|
A|-------------9--------------|
D|-------------11-------------|
G|-------------9--------------|
B|-------------9--------------|
E|-------------9--------------|

B Jazz Style Chord
E|-------------11-------------|
A|-------------M--------------|
D|-------------9--------------|
G|-------------11-------------|
B|-------------12-------------|
E|-------------12-------------|

D# Jazz Style Chord
E|-------------10-------------|
A|-------------M--------------|
D|-------------8--------------|
G|-------------10-------------|
B|-------------11-------------|
E|-------------11-------------|

A Jazz Style Chord
E|-------------9--------------|
A|-------------M--------------|
D|-------------7--------------|
G|-------------9--------------|
B|-------------10-------------|
E|-------------10-------------|



Riff:
E Major Bar Chord (M After Chord Means Its Cut Off)
E|--X--XM--------------------------------------------XM----------------X--X--XM-----------------|
A|--7--7M----9H11-9-----9H11--------11-9-12-11-9H11--9M----------------7--7--7M-----------------|
D|--9--9M---------9H11-------9H11P9------------------11M---------------9--9--9M-----------------|
G|--9--9M--------------------------------------------9M----------------9--9--9M-----------------|
B|--9--9M--------------------------------------------9M----------------9--9--9M-----------------|
E|--7--7M--------------------------------------------9M----------------7--7--7M-----------------|

Riff:
A Major Bar Chord (Played Numerous times listen to the video at 1:50)
E|----5----------------------------------------------X---------------|
A|----7---7H9-9H11-9H11--------11-9-9H11-9H11--------X--11SLD--------|
D|----7-----------------9H11P9-----------------------9---------------|
G|----6----------------------------------------------9---------------|
B|----5----------------------------------------------9---------------|
E|----5----------------------------------------------X---------------|

----------11---11---10---9---X------------|
----------M----M----M----M---7------------|
----------9----9----8----7---9------------|
----------11---11---10---9---9------------|
----------12---12---11---10--9------------|
----------12---12---11---10--7------------|
Добавлено: 08.06.2013
Другие материалы по этой песне:
  • Аккорды и текст

Страница создана 08.06.2013
http://primanota.ru/marty-schwartz/unknown-song-chords.htm
Привет, Гость.
Предлагаем пройти революционный курс по гитаре.
Подарок от PrimaNota.Ru, забирай!