PrimaNota.ru - самый крупный в мире бесплатный архив песенных текстов, аккордов, табулатур и нот


Marty McFly & The Starlighters - Back To The Future Johnny B Goode - таба, видео

Регистрация Запомнить меня
Войти через:  Facebook Google Twitter Vk Yandex Mail.ru

Marty McFly & The Starlighters - Back To The Future Johnny B Goode - таба, видео

Печатать
Просмотров: 29
Marty Mcfly And The Starlighters
Johnny B Goode


tuning: standard

"All right guys, listen it's the blues riff from B, watch me for the changes, and try 
keep up, ok?"

Intro

e|-----------5/6-6-6-5/6-6-6-5/6-6-6---------------------------------|
B|------6-8--5/6-6-6-5/6-6-6-5/6-6-6-9-8-6---------------------------|
G|--/7------------------------------------6-7------------------------|
D|--------------------------------------------8-6--/8-8-8-8-8-8-8-8--|
A|-------------------------------------------------/8-8-8-8-8-8-8-8--|
E|-------------------------------------------------------------------|


e|------------------6------6-------6-------6-------6-------6---------|
B|-6-----6----------6------6-------6-------6-------6-------6---------|
G|-6-7-8-6h7----8b10---8b10---8b10----8b10----8b10-----8b10----------|
D|------------8------------------------------------------------------|
A|-------------------------------------------------------------------|
E|-------------------------------------------------------------------|


e|------6-------6------6------6-------------6---9-8-6----------------------|
B|------6-------6------6------6---------------6-------9-8-6-6---8---6------|
G|-8b10---8b10----8b10---8b10---8b10------------------------6h7-8---6h7-7--|
D|----------------------------------------------------------------8-----8--|
A|-------------------------------------------------------------------------|
E|-------------------------------------------------------------------------|


e|------------------------------------|
B|---6---8-6--------------------------|
G|---6h7-8-6h7-7----------------------|
D|-------------8----------------------|
A|-----------------8-8-8-8-8-8-8-8----|
E|------------------------------------|


Verse

|-------------------|-------------------|
|-------------------|-------------------|
|-------------------|-------------------|
|-------------------|-------------------|
|-8-8-10-8-8-8-10-8-|-8-8-10-8-8-8-10-8-|
|-6-6--6-6-6-6--6-6-|-6-6--6-6-6-6--6-6-|


|-------------------|--------------------|
|-------------------|--------------------|
|-------------------|--------------------|
|-------------------|-----------------8--|
|-8-8-10-8-8-8-10-8-|-8-8-10-8-8-8-10-6--|
|-6-6--6-6-6-6--6-6-|-6-6--6-6-6-6--6----|

|-------------------|-------------------|
|-------------------|-------------------|
|-------------------|-------------------|
|-8-8-10-8-8-8-10-8-|-8-8-10-8-8-8-10---|
|-6-6--6-6-6-6--6-6-|-6-6--6-6-6-6--6-8-|
|-------------------|-----------------6-|

|-------------------|---------------------|
|-------------------|---------------------|
|-------------------|---------------------|
|-------------------|-----------------10--|
|-8-8-10-8-8-8-10-8-|-8-8-10-8-8-8-10--8--|
|-6-6--6-6-6-6--6-6-|-6-6--6-6-6-6--6-----|


|-------------------------|------------------------|
|-------------------------|------------------------|
|-------------------------|------------------------|
|-10-10-12-10-10-10-12-10-|-10-10-12-10-10-10-12---|
|--8--8--8--8--8--8--8--8-|--8--8--8--8--8--8--8-8-|
|-------------------------|----------------------6-|

|-------------------|--------------------||
|-------------------|--------------------||
|-------------------|--------------------||
|-------------------|--------------------||
|-8-8-10-8-8-8-10-8-|-8-8-10-8-8-8-10-8--||
|-6-6--6-6-6-6--6-6-|-6-6--6-6-6-6--6-6--||


 Chorus

|---4S6-------6-----|-------------------|
|---4S6-6-6-6-6-----|-------------------|
|-------------------|-------------------|
|-------------------|-------------------|
|-8---------------8-|-8-8-10-8-8-8-10-8-|
|-6---------------6-|-6-6--6-6-6-6--6-6-|

|---4S6-------6-----|--------------------|
|---4S6-6-6-6-6-----|--------------------|
|-------------------|--------------------|
|-------------------|--------------------|
|-8---------------8-|-8-8-10-8-8-8-10-8--|
|-6---------------6-|-6-6--6-6-6-6--6-6--|

|---4S6-------6-----|-------------------|
|---4S6-6-6-6-6-----|-------------------|
|-------------------|-------------------|
|-----------------8-|-8-8-10-8-8-8-10-8-|
|-----------------6-|-6-6--6-6-6-6--6-6-|
|-------------------|-------------------|

|---4S6-------6-----|--------------------|
|---4S6-6-6-6-6-----|--------------------|
|-------------------|--------------------|
|-------------------|--------------------|
|-----------------8-|-8-8-10-8-8-8-10-8--|
|-----------------6-|-6-6--6-6-6-6--6-6--|

|---4S6-------6------|-------------------------|
|---4S6-6-6-6-6------|-------------------------|
|--------------------|-------------------------|
|-----------------10-|-10-10-12-10-10-10-12-10-|
|------------------8-|--8--8--8--8--8--8--8--8-|
|--------------------|-------------------------|


|---4S6-6-6-6-6------|
|---4S6-------6------|
|--------------------|
|--------------------|
|--------------------|
|--------------------|

Solo

e|-4/6-------6-----------------------------------------------6~~---|
B|-4/6-6-6-6-6----6----------6------------8-------------6-8--6~~---|
G|----------------8b10r8p6h8---6-----6----8-8-6h7---6h7------------|
D|-------------------------------8-6---8----------8----------------|
A|-----------------------------------------------------------------|
E|-----------------------------------------------------------------|


e|-8b9--8p6-----6--------------------------------------------------|
B|----------8-6---8b9-8-6--------------------8-8-----8-8-----------|
G|------------------------8p6-----------6----8-8-6---8-8-6---------|
D|----------------------------8-8~~---8---8--------8-------8-------|
A|-----------------------------------------------------------------|
E|-----------------------------------------------------------------|


e|-----------------------6-------10-------13~~--15-13-15b17r15p13-15-13~--|
B|--8---8-8b9r8---------------------12/14---------------------------------|
G|--8-6-8-8b9r8-6---6-6/8---8/10------------------------------------------|
D|----------------8-------------------------------------------------------|
A|------------------------------------------------------------------------|
E|------------------------------------------------------------------------|


e|-15----13-12-11--------------------------------------------------------------|
B|----15----------13b15r13p11--------11-------11-------9------6------6---------|
G|-----------------------------13b15----13b15----10b12----8b10---8b10---6------|
D|------------------------------------------------------------------------8-6-8|
A|-----------------------------------------------------------------------------|
E|-----------------------------------------------------------------------------|


e|---------------6----------------------------------------------------------|
B|---------------6----8-6----8-6-----8-6---------8-8-----8-8---------8-6----|
G|-x-x-x-----6h7------8-6h7--8-6h7---8-6h7~~\----8-8-6---8-8-6h7-----8-6-7-7|
D|-x-x-x-8-8--------8--------------8-------------------8---------8-8-------8|
A|--------------------------------------------------------------------------|
E|--------------------------------------------------------------------------|


e|-------------------------------------------------------------------|
B|-----6------6---6---6-------6------6---6----6----------------------|
G|---6-8b10~~~b10-b10-b10r8-6-8b10~~~b10-b10--10r8p6-----------------|
D|-8----------------------------------------------------8p6-8~~~-----|
A|-------------------------------------------------------------------|
E|-------------------------------------------------------------------|


e|-------------------------------------------------------------------|
B|-------------------------------------------------------------------|
G|-------------------------------------------------------------------|
D|-15\\\\\\\\\\\\\\\\\\\\\\\\-3-3-3-11\\\\\\\\\\\\\\\\\\\\\\\\\\-----|
A|-------------------------------------------------------------------|
E|-------------------------------------------------------------------|

  (slide down palm muted)


  plz rate :)
Добавлено: 10.06.2016
Вам также может быть интересно:
Другие материалы по этой песне:
  • Аккорды и текст

Страница создана 10.06.2016
http://primanota.ru/marty-mcfly-and-starlighters/back-to-future-johnny-b-goode-chords.htm
Привет, Гость.
Предлагаем пройти революционный курс по гитаре.
Подарок от PrimaNota.Ru, забирай!