PrimaNota.ru - самый крупный в мире бесплатный архив песенных текстов, аккордов, табулатур и нот


Marty Haugen - I Need You To Listen - таба, видео

Регистрация Запомнить меня
Войти через:  Facebook Google Twitter Vk Yandex Mail.ru

Marty Haugen - I Need You To Listen - таба, видео

Печатать
Просмотров: 126
Marty Haugen
I Need You To Listen
Tabbed by Luke/Herded

Tuning: E Standard (EADGBe)

s = slide (optional)

This is a tab of the vocal melody of this song.
There are sure to be mistakes so leave feedback in the comment section.
Enjoy.

Chorus:

e---------------------------------|---------------------------------|
B-------10-----12---10---10s8-----|---------------------------------|
G--9------------------------------|--9----11----12---11---11-9------|  x2
D---------------------------------|---------------------------------|
A---------------------------------|---------------------------------|
E---------------------------------|---------------------------------|
   I    need   you  to   li-sten,    I    need  you  to   an-swer

Verse 1:

e---------------------------------|---------------------------------|
B------13---12---10---13---12-----|-------12---10--------10---------|
G--9------------------------------|--12-------------12--------9-----|
D---------------------------------|---------------------------------|
A---------------------------------|---------------------------------|
E---------------------------------|---------------------------------|
   O   God  I    need you  too,      I    want to   see  your face

e---------------------------------|---------------------------------|
B------10---12---13---10---12-----|-------12---10-------------------|
G--9------------------------------|--12-------------12---10---9-----|
D---------------------------------|---------------------------------|
A---------------------------------|---------------------------------|
E---------------------------------|---------------------------------|
   It  is   this love I    have,     It  makes me search for  you

Chorus:

e---------------------------------|---------------------------------|
B-------10-----12---10---10s8-----|---------------------------------|
G--9------------------------------|--9----11----12---11---11-9------|  x2
D---------------------------------|---------------------------------|
A---------------------------------|---------------------------------|
E---------------------------------|---------------------------------|
   I    need   you  to   li-sten,    I    need  you  to   an-swer

Verse 2:

e---------------------------------|---------------------------------|
B------13---12---10---13---12-----|-------12---10--------10---------|
G--9------------------------------|--12-------------12--------9-----|
D---------------------------------|---------------------------------|
A---------------------------------|---------------------------------|
E---------------------------------|---------------------------------|
   Do  not  a  - void my   eyes,     Or   let  me   an - ger  you

e---------------------------------|-----------------------------------|
B------10---12---13---10---12-----|-------12s10-----------------------|
G--9------------------------------|--12---------12--10---10---9-------|
D---------------------------------|-----------------------------------|
A---------------------------------|-----------------------------------|
E---------------------------------|-----------------------------------|
   Do  not  toss me   a  - side,     O    God   do  not  drop me

Chorus:

e---------------------------------|---------------------------------|
B-------10-----12---10---10s8-----|---------------------------------|
G--9------------------------------|--9----11----12---11---11-9------|  x2
D---------------------------------|---------------------------------|
A---------------------------------|---------------------------------|
E---------------------------------|---------------------------------|
   I    need   you  to   li-sten,    I    need  you  to   an-swer

Verse 3:

e---------------------9-----------|---------------------------------|
B-------9---10---12--------12-----|--10---9----9----10---9----------|
G--9------------------------------|---------------------------11----|
D---------------------------------|---------------------------------|
A---------------------------------|---------------------------------|
E---------------------------------|---------------------------------|
   You are  the  on - ly   hope      I    have fa - ther moth-er

e---------------------------------|---------------------------------|
B-------12---12---10--12----------|-------9----10----9---9----------|
G--9-----------------------9------|--11-----------------------11----|
D---------------------------------|---------------------------------|
A---------------------------------|---------------------------------|
E---------------------------------|---------------------------------|
   They can leave me  or - phaned    But your  love must ne - ver

e---------------------9-----------|---------------------------------|
B-------9----10---12-------12-----|--10---9-------------------------|
G--9------------------------------|------------11----9---11----9----|
D---------------------------------|---------------------------------|
A---------------------------------|---------------------------------|
E---------------------------------|---------------------------------|
   Lead me   to   you O    God,      A  - long the smooth-est road


Chorus:

e---------------------------------|---------------------------------|
B-------10-----12---10---10s8-----|---------------------------------|
G--9------------------------------|--9----11----12---11---11-9------|  x2
D---------------------------------|---------------------------------|
A---------------------------------|---------------------------------|
E---------------------------------|---------------------------------|
   I    need   you  to   li-sten,    I    need  you  to   an-swer

Verse 4:

e---------------------------------|---------------------------------|
B--10--10---13---12---10----------|--10---12---10--------10---------|
G--------------------------12-----|-----------------12--------9-----|
D---------------------------------|---------------------------------|
A---------------------------------|---------------------------------|
E---------------------------------|---------------------------------|
 There are those who  hate me,       Do   not leave me   to   them

e---------------------------------|---------------------------------|
B------13---12---10--------10-----|--10---10----12--10--------------|
G--9------------------12----------|----------------------12---9-----|
D---------------------------------|---------------------------------|
A---------------------------------|---------------------------------|
E---------------------------------|---------------------------------|
  They eat  my   life a  - way,      By   ly - ing  un - der  oath


e---------------------------------|
B---------------------------------|
G--9---12---10---9---------9------|
D---------------------12----------|
A---------------------------------|
E---------------------------------|
   Or  twist-ing ev - i - dence

Chorus:

e---------------------------------|---------------------------------|
B-------10-----12---10---10s8-----|---------------------------------|
G--9------------------------------|--9----11----12---11---11-9------|  x2
D---------------------------------|---------------------------------|
A---------------------------------|---------------------------------|
E---------------------------------|---------------------------------|
   I    need   you  to   li-sten,    I    need  you  to   an-swer

Verse 5:

e---------------------------------|-------9-------------------------|
B-------9---10---12----12---10----|--12-------12----10----9---10----|
G--9------------------------------|---------------------------------|
D---------------------------------|---------------------------------|
A---------------------------------|---------------------------------|
E---------------------------------|---------------------------------|
   I  trust your love  I    will     see your beau- ty   af - ter

e---------------------------------|---------------------------------|
B--9---------9----10---9----------|--9---10----12----10----9--------|
G-------11-----------------11-----|---------------------------11----|
D---------------------------------|---------------------------------|
A---------------------------------|---------------------------------|
E---------------------------------|---------------------------------|
  death In   your land of  life      My  love  will  wait for you

e---------------------------------|---------------------------------|
B--9----10---9--------------------|---------------------------------|
G----------------11----11----9----|--11---12---12---11---------9----|
D---------------------------------|----------------------12---------|
A---------------------------------|---------------------------------|
E---------------------------------|---------------------------------|
   It  will  be strong wai - ting    O    God  my   love will  wait!

Chorus:

e---------------------------------|---------------------------------|
B-------10-----12---10---10s8-----|---------------------------------|
G--9------------------------------|--9----11----12---11---11-9------|  x2
D---------------------------------|---------------------------------|
A---------------------------------|---------------------------------|
E---------------------------------|---------------------------------|
   I    need   you  to   li-sten,    I    need  you  to   an-swer
Добавлено: 23.07.2015
Другие материалы по этой песне:
  • Аккорды и текст

Страница создана 23.07.2015
http://primanota.ru/marty-haugen/i-need-you-to-listen-chords.htm
Привет, Гость.
Предлагаем пройти революционный курс по гитаре.
Подарок от PrimaNota.Ru, забирай!