PrimaNota.ru - самый крупный в мире бесплатный архив песенных текстов, аккордов, табулатур и нот


Marty Friedman - Thunder March - аккорды и текст, таба, видео

Регистрация Запомнить меня
Войти через:  Facebook Google Twitter Vk Yandex Mail.ru

Marty Friedman - Thunder March - аккорды и текст, таба, видео

Печатать
Просмотров: 191
Thunder March
Marty Friedman
		   From kunji@best.com Sun May  4 10:10:06 1997

Author/Artist: Marty Friedman
Title: Thunder March (but I could have sworn I heard it on another
'Scenes' song...)
Album: Dragon's Kiss
Transcribed by: Ryan Kim
Email: kunji@best.com

Please excuse this really poor translation.  It's my first attempt to
transcribe
a song by ear.  This is only a small part of Thunder March, but I could
have sworn
I heard this little part on another song on 'Scenes'... someone correct
me.

----------3-----3--------------------------5-----5----------------------------
-1--3--5-----3-----1--0-----------3--5--6-----5-----3-------------------------
-------------------------2----------------------------------------------------
------------------------------------------------------------------------------
------------------------------------------------------------------------------
------------------------------------------------------------------------------


----------3--3-----5--7--8--------1--0-h-1-p-0--------------------------------
-1--3--5--------5-------------------------------3--1--1-----------------------
------------------------------------------------------------------------------
------------------------------------------------------------------------------
------------------------------------------------------------------------------
------------------------------------------------------------------------------     
Добавлено: 04.11.2013
Другие материалы по этой песне:

Страница создана 01.03.2012
http://primanota.ru/marty-friedman/thunder-march-chords.htm
Привет, Гость.
Предлагаем пройти революционный курс по гитаре.
Подарок от PrimaNota.Ru, забирай!