PrimaNota.ru - самый крупный в мире бесплатный архив песенных текстов, аккордов, табулатур и нот


Marty Friedman - Fuel Injection Stingray - таба, видео

Регистрация Запомнить меня
Войти через:  Facebook Google Twitter Vk Yandex Mail.ru

Marty Friedman - Fuel Injection Stingray - таба, видео

Печатать
Просмотров: 117
Marty Friedman – “Fuel Injection Stingray”
Music For Speeding

INTRO
E|-----------------------------------------------------------------------|
B|-----------------------------------------------------------------------|
G|-----------------------------------------------------------------------|
D|-----------------------------------------------------------------------|
A|1------------1-----------1---3----4----------1-----------1-------------|
E|---3—-1---3-----3—-1—-3----3----3---3—-1-—3-----3—-1—-3------3—-1--3---|


------------------------------------------|
------------------------------------------|
------------------------------------------|
------------------------------------------|
1-----3----4-----5-----4------------------|
---3----3-----3-----3-----3---1---3-------|


main riff uses power chords with the same root notes as above

main riff
E|---------------------------------------------------------------------------|
B|---------------------------------------------------------------------------|
G|---------------------------------------------------------------------------|
D|3------------3--------------3-----5-----6------------3-------------3-------|
A|1--5--3--5---1--5--3--5-----1--5--3--5--4--5--3--5---1---5--3--5---1--5--3-|
E|---3--1--3------3--1--3--------3-----3-----3--1--3-------3--1--3------3--1-|


-------------------------------------------|
-------------------------------------------|
-------------------------------------------|
------3-----5-----6-----7-----6------------|
--5---1--5--3--5--4--5--5--5--4--5---3--5--|
--3------3-----3-----3-----3-----3---1--3--|

Then

E|----------------------------------------------------------------------------|
B|----------------------------------------------------------------------------|
G|3------------3--------------3-----5-----6------------3-------------3--------|
D|1--5--3--5---1--5--3--5-----1--5--3--5--4--5--3--5---1---5--3--5---1--5--3--|
A|---3--1--3------3--1--3--------3-----3-----3--1--3-------3--1--3------3--1--|
E|----------------------------------------------------------------------------|


-------------------------------------------|
-------------------------------------------|
------3-----5-----6-----7-----6------------|
--5---1--5--3--5--4--5--5--5--4--5---3--5--|
--3------3-----3-----3-----3-----3---1--3--|
-------------------------------------------|

Then


E|----------------------------------------------------------------------------|
B|----------------------------------------------------------------------------|
G|1------------1--------------1-----3-----4------------1-------------1--------|
D|---3--1--3------3--1--3--------3-----3-----3--1--3-------3--1--3------3--1--|
A|----------------------------------------------------------------------------|
E|----------------------------------------------------------------------------|


-------------------------------------------|
-------------------------------------------|
------1-----3-----4-----5-----4------------|
--3------3-----3-----3-----3-----3---1--3--|
-------------------------------------------|
-------------------------------------------|

                                      For guitar solos ask Marty!!!

thedr_mental@hotmail.com

Any Corrections are welcome!...enjoy!
Добавлено: 28.07.2012
Другие материалы по этой песне:
  • Аккорды и текст

Страница создана 28.07.2012
http://primanota.ru/marty-friedman/fuel-injection-stingray-chords.htm
Привет, Гость.
Предлагаем пройти революционный курс по гитаре.
Подарок от PrimaNota.Ru, забирай!