PrimaNota.ru - самый крупный в мире бесплатный архив песенных текстов, аккордов, табулатур и нот


Martinis - Hung Over - таба, видео

Регистрация Запомнить меня
Войти через:  Facebook Google Twitter Vk Yandex Mail.ru

Martinis - Hung Over - таба, видео

Печатать
Просмотров: 62
The Martinis - Hung Over [Late Late Party (1965-67) Album]

Tabbed by Richard
----------------------------------------------------------------------------

   Intro                      Riff 1 (Guitar 1)
e:-----6--6-x-6----|        |-------------------------------------------|
b:-----6--6-x-6--5-|        |-------------------------------------------|
g:-----6----x-6--8-|        |-------------------------------------------|
D:-----8------8--8-|  X2    |-----6--5h6p5---------------------6--5h6p5-|
A:---------------6-|        |---8--------------------------6-8----------|
E:-(4)-------------|        |-6-----------------------/6h9--------------|

e:-------------------------------------------|
b:---6-9--8h9p8-------------------6-9--8h9p8-|
g:----------------------------6-8------------|
D:-8------------------------8----------------|
A:-------------------------------------------|
E:-------------------------------------------|


   Riff 2 (Guitar 2)
e:-6--6-6-------11--11-11-|
b:-6--6-6-------11--11-11-|
g:-6--6-6-------12--12-12-|
D:------------------------|  X4  (Played along with Riff 1)
A:------------------------|
E:------------------------|


e:-6--6--6-6-------11--11-11-|
b:-6--6--6-6-------11--11-11-|
g:-6--6--6-6-------12--12-12-|
D:-8-------------------------|  X4  (Played during the Organ Solo)
A:---------------------------|
E:---------------------------|


   Guitar Solo (Guitar 1)
e:-6---------------------------------------------------------------------|
b:---9-6---6----------------------6--------------------------------------|
g:-------8---6---6-8^8^-8-6-------6--------------------------8^-8^--6----|
D:-------------8------------8-6-8---8-6--------------------6----------h8-|
A:----------------------------------------6h8-6--------6/8---------------|
E:----------------------------------------------9-66-9-------------------|

e:-------------------------6-----------------------------------------------|
b:-----------6---------------9-6---6-----------9-----9-----(9)----(9)----9-|
g:-----------6-------------------8---6---6-8h10--8h10--8h10---8h10---8h10--|
D:-8p6---6-8---8p6---6-8---------------8-----------------------------------|
A:-----6-----------6-------------------------------------------------------|
E:-------------------------------------------------------------------------|

e:-------------------------|       |-6--6-6-------11--11-11-|
b:-------------------------|       |-6--6-6-------11--11-11-|      (Played
g:----------(6)-(6)--------|       |-6--6-6-------12--12-12-|       during
D:-8p6-------6---6---------|       |------------------------|  X4    the
A:-----8-6h8---8---8-6-8-8-|       |------------------------|       Guitar
E:-------------------------|       |------------------------|        solo)


e:-6--6--6-6---(6)------11--11-11-|
b:-6--6--6-6---(6)------11--11-11-|
g:-6--6--6-6---(6)------12--12-12-|
D:-8-----------(8)----------------|  X4  (Played during the trumpet solo)
A:--------------------------------|
E:--------------------------------|


  - Riff 1 (Guitar 1) X1

  - Riff 2 (Guitar 2) X4  (Played along with Riff 1)

 
   Outro
e:------------------------------------------------------------------------|
b:------------------------------------------------------------------6-9-8-|
g:--------------------------------------------8h10-8p6---6----------------|
D:-----6--5-----------------------------6-5------------8---8---8-8--------|
A:---8--------6h8-6---------4-------6-8-----------------------------------|
E:-6----------------9-6-4-6-----6-9---------------------------------------|

e:-6---------------------------------9-6---------------------------|
b:---9-8-8h10-10^-6----------------------9-6----6------------------|
g:--------------------------6--9/8-----------8^---8p6--------------|
D:----------------------6-8---------------------------8-------6--5-|
A:--------------------8-------------------------------------8------|
E:--------------------------------------------------------6--------|

e:-------------|       |-6--6-6-------11--11-11-|     
b:-------------|       |-6--6-6-------11--11-11-|     (Played during the
g:-------------|       |-6--6-6-------12--12-12-|      Outro. Beginning
D:-----6-8-6---|       |------------------------| X7   with D#, then X7,
A:-6h8-------8-|       |------------------------|      and ending on A#m)
E:-------------|       |------------------------|



http://lightintheattic.net/releases/615-late-late-party-1965-67
Добавлено: 08.06.2013
Вам также может быть интересно:
Другие материалы по этой песне:
  • Аккорды и текст

Страница создана 08.06.2013
http://primanota.ru/martinis/hung-over-chords.htm
Привет, Гость.
Предлагаем пройти революционный курс по гитаре.
Подарок от PrimaNota.Ru, забирай!