PrimaNota.ru - самый крупный в мире бесплатный архив песенных текстов, аккордов, табулатур и нот


Martin Smith - Fill My Cup - таба, видео

Регистрация Запомнить меня
Войти через:  Facebook Google Twitter Vk Yandex Mail.ru

Martin Smith - Fill My Cup - таба, видео

Печатать
Просмотров: 149
Fill My Cup - Martin Smith & CeCe Winans
CompassionArt 2009

Done by ear. You'll get the rhythm part from record. Awesome song. God bless.

Intro
     C                    Cm
e-|-----------------------------------------------|-
B-|------1----------1-----4-----1--------------1--|-
G-|---------0-3-(0)-----0----(0)-----0-3p0--3-----|-
D-|---(2)-----------------------------------------|-
A-|--3--------------------------------------------|-
E-|-----------------------------------------------|-



Verse:
     C
e-|-----------------------------------------------|-
B-|------1----------1-----4-----1--------------1--|-
G-|---------0-3-(0)-----0----(0)-----0-3p0--3-----|-
D-|---(2)-----------------------------------------|-
A-|--3--------------------------------------------|-
E-|-----------------------------------------------|-

     G7sus4                          F
e-|--------------------------------------------------|-
B-|--1-------------------------------1--1------------|-
G-|------0------0---3--0---------0---2--2h3-3-3-3p2--|-
D-|--------0-3----0------0-3p0-3-----3---------------|-
A-|---(2)----------------------------3--3------------|-
E-|--3-----------------------------------------------|-

     C
e-|-----------------------------------------------|-
B-|------1----------1-----4-----1--------------1--|-
G-|---------0-3-(0)-----0----(0)-----0-3p0--3-----|-
D-|---(2)-----------------------------------------|-
A-|--3--------------------------------------------|-
E-|-----------------------------------------------|


Verse #1:
C               G
Fill my cup, so it's overflowing
     F          C
Flowing like a river, fill my cup

C               G
Fill my cup, fill it with Your mercy
     G          C
Love and truth and justice, fill my cup


Chorus:
   Bb         E/G#
Oh Lord, the river's running high
   Ami      G         F
So take me to the other side
   Bb         E/G#
Oh Lord, the tides are really high
   Ami        G     D7/F#   Fm6   
So take me to the other side, oh  ... fill my cup
                 

Intro 2x


Verse #2:
Fill my cup, so it's overflowing
Flowing like a river, fill my cup
Take this cup, have it with Your glass
And pour it over nations, take this cup


Chorus:
   Bb         E/G#
Oh Lord, the river's running high
   Ami      G         F
So take me to the other side
   Bb         E/G#
Oh Lord, the tides are really high
   Ami        G     D7/F#   Fm6 
So take me to the other side, oh  ... fill my cup


Bridge:
C         G/D     C/E     F     C/G     E7/G#     Am7    Em7(b5)
Give us a living water overflowing through me
C#dim    Dm7    C/E     F     E7/G#    Am7     G    C
From the throne of God, overflowing through me

Give us a living water overflowing through me
From the throne of God, overflowing through me

Give us a living water overflowing through me
From the throne of God, overflowing through me
Ooh, overflowing through me, let it flow


C    G   Bb   F   C
                Come on, come on, come on


Coda:
C                   G
Take us to the other side
Bb/F          F       C
Take us to the other side
C                   G
Take us to the other side
Bb/F          F       C
Take us to the other side

Take us to the other side, oh
Take us to the other side
Take us to the other side, oh
Take us to the other side

Take us to the other side, oh
Take us to the other side
Take us to the other side, oh
Take us to the other side



Fill My Cup (CompassionArt 2009) by Martin Smith & CeCe Winans
Добавлено: 06.08.2013
Другие материалы по этой песне:
  • Аккорды и текст

Страница создана 06.08.2013
http://primanota.ru/martin-smith/fill-my-cup-chords.htm
Привет, Гость.
Предлагаем пройти революционный курс по гитаре.
Подарок от PrimaNota.Ru, забирай!