PrimaNota.ru - самый крупный в мире бесплатный архив песенных текстов, аккордов, табулатур и нот


Martin Simpson - Wash In That Beutiful Pool - таба, видео

Регистрация Запомнить меня
Войти через:  Facebook Google Twitter Vk Yandex Mail.ru

Martin Simpson - Wash In That Beutiful Pool - таба, видео

Печатать
Просмотров: 91
Уроки эстрадного вокала в Санкт-Петербурге
A transcription of Martin Simpson's arrangement of this 'camp meeting
song' on "A Closer Walk With Thee", where he makes a nice segue into
"Waiting for the Boatman".

The fingering is very simple, and the only real challenge is to play it
with as much delicacy and feeling as he does...

Any comments very welcome.

Best wishes,

Barry

------------------------------------------------------------------------

                       ===========================
                       Wash In That Beautiful Pool
                       ===========================

Trad., arranged by Martin Simpson
Transcribed by Barry Hutchinson (bhutchinson@cix.compulink.co.uk)

Open G tuning: DGDGBD


    e e        q  E  s q       q     e  H  e      q  e  e  q  s s s s

D |------||---------------(0)-----|--------0--|---0--0-----------------|
B |------||-----------------------|-----------|------------------------|
G |------||*---0--0--0h2-------0--|-----2-----|---2-----5--2--2h4p2p0--|
D |-0h2--||*---0------------------|--4--------|---0--------4-----------|
G |------||----0------------------|-----------|------------------------|
D |------||-----------------------|--0--------|------------------------|
              arp.                               arp.


e  e  e  e  Q  e      e   q       s s  e q       e
---------------0--|----------(0)--2p0-------(0)-----|-------------------|
------------------|---5---3-------------------------|-------------------|
0-----------0-----|---0---0------------4p2-------0--|-------------------|
---0-----0--------|--------------------3------------|-------------------|
4-----5-----0-----|---5---4-------------------------|-------------------|
------------------|---------------------------------|-------------------|
                     arp.arp.

e q       e  Q  s s     e  q       e  q  s s s s
-----(0)-------------|--------(0)-----------------|---------------------|
---------------------|----------------------------|---------------------|
2p0----------0-------|-----0-------2--4--2h4p2p0--|---------------------|
----------2-----2p0--|--0-------------2--4--------|---------------------|
5--------------------|--4-------------------------|---------------------|
---------------------|----------------------------|---------------------|


e  e  e  e  q  e e      q  E s e  e  e e     q       e  e  q  e e
--------------------|-------------0-------|-----(0)----------------|----|
--------------------|---------------------|------------------------|----|
0-----------0-------|---0--0h2h4-----2p0--|--0----------0----------|----|
---0-----0-----0h2--|---0-----------------|----------2-----0--0h2--|----|
4-----5-----0-------|---0------------5----|--4-------5-----4-------|----|
--------------------|---------------------|------------------------|----|
                       arp.

 e  q   e  e  q  e     q  q Q  e
--------------0----|-----------0--|-------------------------------------|
-----------3-------|--------------|-------------------------------------|
-0--0---4--------4\|---2----7-----|-------------------------------------|
-0------4----------|---0----------|-------------------------------------|
-0-----------------|------2/7-----|-------------------------------------|
-------------------|---0----------|-------------------------------------|
arp.   arp.           arp.

 e   q       s s  e q       e     e q       e  Q  s s
--------(0)--2p0-------(0)-----|-------(0)-------------|----------------|
-5---3-------------------------|-----------------------|----------------|
-0---0------------4p2-------0--|--2p0----------0-------|----------------|
------------------3------------|------------2-----2p0--|----------------|
-5---4-------------------------|--5--------------------|----------------|
-------------------------------|-----------------------|----------------|
arp.arp.

e  q       e  q  s s s s     e  e  e  e   q  e e
------(0)-----------------|------------------------||-------------------|
--------------------------|------------------------||-------------------|
---0-------2--4--2h4p2p0--|--0------------0-------*||-------------------|
0-------------2--4--------|-----0-----0---0--0h2--*||-------------------|
4-------------------------|--4-----5------0--------||-------------------|
--------------------------|------------------------||-------------------|
                                         arp.

========================================================================
==                       TABLATURE EXPLANATION                        ==
========================================================================

----------                            ----------|
----5h8--- Hammeron                   ----(8)---| Ghost Note
----------                            ----------|
----5p8--- Pulloff                    ----------|

----------                            ----------|
----5/8--- Slide Up                   -----x----| Dead Note
----------                            ----------|
----5\8--- Slide Down                 ----------|

----------                            ||------|| Repeat Start & End
----5~~~-- Vibrato                    ||*----*||
----------                            ||*----*||
----------                            ||------||

Rhythm:
  w = whole note            W = dotted whole
  h = half note             H = dotted half
  q = quarter note          Q = dotted quarter
  e = eighth note           E = dotted eighth
  s = sixteenth note        S = dotted sixteenth
  ^ = triplet

General:
  arp. = arpeggio

========================================================================
==       Created with a shareware version of the BUCKET 'O TAB        ==
==              tablature creation software for Windows               ==
==                       For more information:                        ==
==                      email: gse@ocsystems.com                      ==
==  US Mail: The Bucket, 3176-B5 Summit Square Dr., Oakton, VA 22124  ==
========================================================================
Добавлено: 17.03.2012
Вам также может быть интересно:
Другие материалы по этой песне:
  • Аккорды и текст

Страница создана 25.02.2012
http://primanota.ru/martin-simpson/wash-in-that-beutiful-pool-chords.htm
Привет, Гость.
Предлагаем пройти революционный курс по гитаре.
Подарок от PrimaNota.Ru, забирай!