PrimaNota.ru - самый крупный в мире бесплатный архив песенных текстов, аккордов, табулатур и нот


Martin Simpson - The Fairflower Of - аккорды и текст, таба, видео

Регистрация Запомнить меня
Войти через:  Facebook Google Twitter Vk Yandex Mail.ru

Martin Simpson - The Fairflower Of - аккорды и текст, таба, видео

Печатать
Просмотров: 89
Уроки эстрадного вокала в Санкт-Петербурге
The Fairflower Of
Martin Simpson
		   m: "Kean, John"  keanj@agresearch.cri.nz>

The Fairflower of Northumberland  - trad. arr. Martin Simpson
~~~~~~~~~~~~~~~~~~~~~~~~~~~~~~~~
From "Leaves of Life".

Transcribed and tabbed by John Kean.

Drop-D tuning (DADGBE).


 3/4  . , .    , . , . , .   , . , . , .   , . , . , .   , . , . , .
||--------0-||-2-----0h2---|-------------|---------0---|-0-----------|
||-T----3---||-----3-------|-3-----------|-0--h3-------|---------3h5-|
||-A--2-----||---2-------2-|-----2-------|-------------|-----2-------|
||-B--------||-0-----------|-------4-0---|-------------|---2---------|
||----------||-------------|-4-----------|-2-----------|-0-----------|
||----------||-------------|-------------|-------------|-------------|


   ,  .  ,  .  ,  .    , . , . , .   , . , . , . 2/4 ,  .  ,  .
|-~2--------0-h2-----|-------0h2---|-3-----5/7----|--5-----------|
|--3-----3-----------|-3-----------|-----0--------|--------------|
|--2--2-----------2--|-----2-------|---0-------0--|--------2--0--|
|--0-----------------|---0---------|--------------|-----0--------|
|--------------------|-2-----------|--------------|--------------|
|--------------------|-------------|-5------------|--0-----------|


7/8,  .  ,  .  .  ,  . 3/4 , . , . , .   , . , . , .    , . , . , .
|-----------------------|--------------|-------------|--------------|
|-------12----10/12-----|-~7-----------|-------7-----|-~5-------5---|
|-----------------------|--7-----9p7---|-4---7-------|--6---7-------|
|----11-----9---/11-----|--9-----9-----|-5-----------|--7-----------|
|--9--------------------|--------------|-0-----------|--------------|
|-----------------------|--------------|-------------|--------------|


   , . , . , .   , . , . , .    , . , . , .    , . , . , . 0'24"
|--------------|-------------|--------------|---------------||
|-~7-----5h7---|-------------|-~0--h3-5-----|-~3------~3h5--||
|--7-----------|-7\--4\--2---|--0-----------|--0-------0----||
|--0-----------|-9\--5\--4---|--------------|---------------||
|--------------|-------------|--------0-----|--2-------2----||
|--------------|-------------|--5-----------|---------------||


   , . , . , .   ,  .  ,  .  ,  .    , . , . , .   , . , . , .
||-2-----0h2---|-------------------|-------0-----|-0-------0---|
||-----3-------|-3-----------------|-0--h3-------|-------3---3-|
||---2-------2-|----2--0-----0-----|-------------|-----2-------|
||-0-----------|----------4--------|-------------|---2---------|
||-------------|-4-----------------|-2-----------|-0-----------|
||-------------|-------------------|-------------|-------------|


  ,  .  ,  .     ,  .    , . , . , .   , . , . , . 2/4 ,  .  ,  .
|-2--------2h3p2p0-----|-------0h2---|-3-----5/7----|--5-----------|
|-------3--------------|-3-----------|-----0--------|--------------|
|----2--------------2--|-----2-------|---0-------0--|-----------0--|
|-0--------------------|---0---------|--------------|--------0-----|
|----------------------|-2-----------|--------------|--------------|
|----------------------|-------------|-5------------|--0-----------|


7/8,  .  , .  .  , . 3/4 , . , . , .   , . , . , .    , . , . , .
|---------------------|--------------|-------------|--------------|
|-------12---10/12----|-~7-----------|-------7-----|-~5-------5---|
|---------------------|--7-----9p7---|-4---7-------|--6---7-------|
|----11----9---/11----|--9-----------|-5---7-------|--7-----------|
|--9------------------|--------------|-0-----------|--------------|
|---------------------|--------------|-------------|--------------|


   , . , . , .   , . , . , .   , . , . , .    , . , . , . 0'47"
|--------------|-------------|-------------|---------------||
|-~7-----5h7---|-------------|-0--h3-5-----|-~3------~3h5--||
|--7-----------|-7---4---2---|-0-----------|--0-------0----||
|--0-----------|-9---5---4---|-------------|---------------||
|--------------|-------------|-------0-----|--2-------2----||
|--------------|-------------|-5-----------|---------------||


   , . , . , .   ,  .  ,  .  ,  .    , . , . , .   , . , . , .
||-2-----0h2---|-------------------|---------0---|-0-------0---|
||-----3-------|-3-----------------|-0--h3-------|-------------|
||---2-------2-|----2--0-----0-----|-------------|-----2-------|
||-0-----------|----------4--------|-------------|---2---------|
||-------------|-4-----------------|-2-----------|-0-----------|
||-------------|-------------------|-------------|-------------|


  ,  .  ,  .     ,  .    , . , . , .   , . , . , . 2/4 ,  .  ,  .
|-2--------2h3p2p0-----|-------0h2---|-3-----5/7----|--5-----------|
|-------3--------------|-3-----------|-----0--------|-----5-/7-----|
|----2--------------2--|-----2-------|---0-------0--|-----------0--|
|-0--------------------|---0---------|--------------|--------------|
|----------------------|-2-----------|--------------|--------------|
|----------------------|-------------|-5------------|--0-----------|


7/8,  .  , .  .  , . 3/4 , . , . , .   , . , . , .    , . , . , .
|---------------------|--------------|-------------|--------------|
|-------12---10/12----|-~7-----------|-------7-----|-~5-------5---|
|---------------------|--7-----9p7---|-4---7-------|--6---7-------|
|----11----9---/11----|--9-----9-----|-5---7-------|--7-----------|
|--9------------------|--------------|-0-----------|--------------|
|---------------------|--------------|-------------|--------------|


   , . , . , .   , . , . , .   , . , . , .    , . , . , . 1'09"
|--------------|-------------|-------------|---------------||
|-~7-----5h7---|-------------|-0--h3-5-----|-~3------~3h5--||
|--7-----------|-7---4---2---|-0-----------|--0-------0----||
|--0-----------|-9---5---4---|-------------|---------------||
|--------------|-------------|-------0-----|--2-------2----||
|--------------|-------------|-5-----------|---------------||


   , . , . , .   ,  .  ,  .  ,  .    , . , . , .   , . , . , .
||-2-----0h2---|-------------------|---------0---|-0-----------|
||-----3-------|-3-----------------|-0--h3-------|-------------|
||---2-------2-|-------2-----------|-------------|-------------|
||-0-----------|----------4--0-----|-------------|-------------|
||-------------|-4-----------------|-2-----------|-0-----------|
||-------------|-------------------|-------------|-------------|


   ,  .  ,  .  ,  .    , . , . , .   , . , . , . 2/4 ,  .  ,  .
|-~2--------0-h2-----|-------0h2---|-3-----5/7----|--5-----------|
|--3-----3-----------|-3-----------|-----0--------|-----5-/7-----|
|--2--2-----------2--|-----2-------|---0-------0--|-----------0--|
|--0-----------------|---0---------|--------------|--------------|
|--------------------|-2-----------|--------------|--------------|
|--------------------|-------------|-5------------|--0-----------|


7/8,  .  , .  .  , . 3/4 , . , . , .   , . , . , .    , . , . , .
|---------------------|--------------|-------------|--------------|
|-------12---10/12----|-~7-----------|-------7-----|-~5-------5---|
|---------------------|--7-----9p7---|-4---7-------|--6---7-------|
|----11----9---/11----|--9-----9-----|-5---7-------|--7-----------|
|--9------------------|--------------|-0-----------|--------------|
|---------------------|--------------|-------------|--------------|


   , . , .     , .   , . , . , .   , . , . , .    , . , . , .
|-~2-----2h3p2p0---|-------------|---------0---|--------------|
|--3---3-----------|-3-----------|-0--h3-------|-~3-----------|
|--2-2-----------2-|---2-0---0---|-------------|--0-----------|
|--0---------------|-------4-----|-------------|--------------|
|------------------|-4-----------|-2-------0---|--2-----------|
|------------------|-------------|-------------|--------------|


7/8,  .  , .  .  , . 3/4 , . , . , .   , . , . , .    , . , . , .
|---------------------|--------------|-------------|--------------|
|-------12---10/12----|-~7-----------|-------7-----|-~5-------5---|
|---------------------|--7-----9p7---|-4---7-------|--6---7-------|
|----11----9---/11----|--9-----9-----|-5---7-------|--7-----------|
|--9------------------|--------------|-0-----------|--------------|
|---------------------|--------------|-------------|--------------|
                 *pause


   , . , . , .   , . , . , .   , . , . , .    , . , . , . 1'50"
|--------------|-------------|--------~0---|---------------||
|-~7-----5h7---|-------------|-0--h3---0---|-~3------------||
|--7-----------|-7---4---2---|-0-------0---|--2------------||
|--0-----------|-9---5---4---|-------------|--0------------||
|--------------|-------------|---------0---|---------------||
|--------------|-------------|-5-----------|--0------------||
                                       *pause     
Добавлено: 05.09.2013
Другие материалы по этой песне:
  • Аккорды и текст

Страница создана 05.04.2012
http://primanota.ru/martin-simpson/the-fairflower-of-chords.htm
Привет, Гость.
Предлагаем пройти революционный курс по гитаре.
Подарок от PrimaNota.Ru, забирай!