PrimaNota.ru - самый крупный в мире бесплатный архив песенных текстов, аккордов, табулатур и нот


Martin Simpson - Delia - аккорды и текст, таба, видео

Регистрация Запомнить меня
Войти через:  Facebook Google Twitter Vk Yandex Mail.ru

Martin Simpson - Delia - аккорды и текст, таба, видео

Печатать
Просмотров: 102
Delia
Martin Simpson
		   I hope you enjoy this as much as I do. It took me a lot of close
listening at 1/2-speed to catch exactly what Simpson was doing
on this one, and I ran through a couple of pretty exotic tunings
(well, he is very fond of 'em) before deciding it was, after all,
in standard... and then I asked Simpson himself after a gig, only
to be told it was in dropped D (All of which only concerns 3 notes
in measure 10 in any case.)

Please feel free to mail me and say hello - all comments, corrections,
and general feedback very welcome.

Barry

======================================================================

                                  -----
                                  DELIA
                                  -----

As arranged and played by Martin Simpson on 'Smoke and Mirrors'.
Transcribed by Barry Hutchinson (bhutchinson@cix.compulink.co.uk).

I haven't included the vocal part here - in any case, I strongly
recommend that you hear the album to get a proper idea of the overall
feel of the piece.


Dropped D tuning (DADGBE), capo 3rd fret


Played lightly, jauntily

     e  e  e  e  e  e  e  e     e  e  e  q  e e  e
||------------5-----------2--|-----------0----------|
||---------------------------|--------------3p0-----|
||*--------2-----------0-----|--------0----------0--|
||*-----4-----------4--------|-----4----------------|
||---0-----------0-----------|--0-------------------|
||---------------------------|----------------------|


e  e  e  e  e  e  e  e     e  e  e  q  e e  e
---------5-----------2--|-----------0----------|
------------------------|--------------3p0-----|
------2-----------0-----|--------0----------0--|
---4-----------4--------|-----4----------------|
0-----------0-----------|--0-------------------|
------------------------|----------------------|


e  e  e  e  e  e  e  e     e  e  e  q  e e  e
---------5-----------2--|-----------0----------|
------------------------|--------------3p0-----|
------2-----------0-----|--------0----------0--|
---4-----------4--------|-----4----------------|
0-----------0-----------|--0-------------------|
------------------------|----------------------|


e  e  e   e  e e  e  e     e  e e  e  e e  e  e
------10-----7p0-----5--|-----2p0----------------|
----------0-------0-----|----------3--5p3--------|
---7--------------------|---------------------0--|
0------------0----------|--0---------------4-----|
------------------------|-------4-----2----------|
------------------------|------------------------|


q  e  e  e  e  e  e     e  e  e  e e  e  e e
------------0--------|----------------0-------|
------3--------------|-----------3h5------p3--|
------------------4--|------------------------|
---5-----------5-----|-----5------------0-----|
---------5-----------|--------5---------------|
5--------------------|--0----------0----------|


e  e  e  q  e   e e     e e  e  e  e e  e  e
---------------------|-------------2p0--------|
---------------------|----------3----------3--|
4--------4--0---2p0--|-------0----------0-----|
---5------------|----|--2h4-------------------|
------5---------|----|------------------------|
----------------|----|------------------------|
            'frailed' note

e  e  e  e e q  e
--------------------||
---------5h7p5--0---||
---6---------------*||
------7------------*||
0-------------------||
--------------------||




========================================================================
==                       TABLATURE EXPLANATION                        ==
========================================================================

----------
----------                            ||------|| Repeat Start & End
----5~~~-- Vibrato                    ||*----*||
----------                            ||*----*||
----------                            ||------||

Rhythm:
  w = whole note            W = dotted whole
  h = half note             H = dotted half
  q = quarter note          Q = dotted quarter
  e = eighth note           E = dotted eighth
  s = sixteenth note        S = dotted sixteenth
  ^ = triplet

General:
  'frailed' note - played with percussive downstroke of middle fingernail

========================================================================
==       Created with a shareware version of the BUCKET 'O TAB        ==
==              tablature creation software for Windows               ==
==                       For more information:                        ==
==                      email: gse@ocsystems.com                      ==
==  US Mail: The Bucket, 3176-B5 Summit Square Dr., Oakton, VA 22124  ==
========================================================================     
Добавлено: 19.10.2013
Другие материалы по этой песне:
  • Аккорды и текст

Страница создана 09.06.2012
http://primanota.ru/martin-simpson/delia-chords.htm
Привет, Гость.
Предлагаем пройти революционный курс по гитаре.
Подарок от PrimaNota.Ru, забирай!