PrimaNota.ru - самый крупный в мире бесплатный архив песенных текстов, аккордов, табулатур и нот


Martin Sexton - Marry Me - таба, видео

Регистрация Запомнить меня
Войти через:  Facebook Google Twitter Vk Yandex Mail.ru

Martin Sexton - Marry Me - таба, видео

Печатать
Просмотров: 88
-------------------------------------------------------------------------------
                             Marry Me Live - Martin Sexton
-------------------------------------------------------------------------------
Tabbed by:mchammer685


Tuning:EADGBE
  Verse
e|---------0-0-----------0-0----------0--0------------0-0--------------------|
B|---------7-7-----------7-7----------7--7------------7-7--------------------|
G|------6--6-6--------5--5-5--------6-6--6---------5--5-5--------------------|
D|----7----7-7------6----6-6------7---7--7-------6----6-6--------------------|
A|--0---------------------------0--------------------------------------------|
E|----------------0---------------------------0------------------------------|


e|---------0-0-----------0-0----------0--0------------0-0--------------------|
B|---------7-7-----------7-7----------7--7------------7-7--------------------|
G|------6--6-6--------5--5-5--------6-6--6---------5--5-5--------------------|
D|----7----7-7------6----6-6------7---7--7-------6----6-6--------------------|
A|--0---------------------------0--------------------------------------------|
E|----------------0---------------------------0------------------------------|
   "I like coffee  You like tea...."

  
 Transition to chorus 
e|--------0-0---0-(0)----5-(5)-----------------------------------------------|
B|--------7-7---8-(8)----7-(7)-----------------------------------------------|
G|------6-6-6---6-(6)----x-(x)-----------------------------------------------|
D|----7---7-7---7-(7)----7-(7)-----------------------------------------------|
A|--0------------------------------------------------------------------------|
E|---------------------------------------------------------------------------|
  
  Chorus
e|---------2-------------2------------------5-------------5------------------|
B|------3--3--3-------3--3--3------------6--6--6-------6--6--6---------------|
G|----2----2----2---2----2----2--------5----5----5---5----5----5-------------|
D|--0-------------0------------------0-------------0-------------------------|
A|---------------------------------------------------------------------------|
E|---------------------------------------------------------------------------|
   "Marry Me...."                   "Neath the tamarac tree..."


e|----------------------3--3-------2-----------------------------------------|
B|-------2-2------------0--0-------3-----------------------------------------|
G|-------2-2------------0--0-------2 (let ring)------------------------------|
D|----2--2-2---------0--0--0-------------------------------------------------|
A|--0------------------------------------------------------------------------|
E|----------------3----------------------------------------------------------|
   "Finds us we'll be..."


e|---------------------------------------------------------------------------|
B|--1-p-0--------------------------------------------------------------------|
G|---------0------------/3-p-2-----------------------------------------------|
D|------------------------------3------2------(then back to the verse)-------|
A|---------------------------------------------------------------------------|
E|---------------------------------------------------------------------------|
   "in the morning dew..."  

Bridge (after second chorus)
e|-----------------0-0-0-0-0-0-----------------------------------------------|
B|---2-2-2-2-2-2---1-1-1-1-1-1----------------------2-2----------------------|
G|---2-2-2-2-2-2---0-0-0-0-0-0----------------------2-2----------------------|
D|---2-2-2-2-2-2---2-2-2-2-2-2-(repeat phrase 3X)---2-2----------------------|
A|-----------------3-3-3-3-3-3---------------------------2-4-(back to chorus)
E|---------------------------------------------------------------------------|



************************************

| /   slide up
| \   slide down
| h   hammer-on
| p   pull-off
| ~   vibrato
| +   harmonic
| x   Mute note
| b   Bend
| pb  Pre-bend
| br  Bend release
| pbr Pre-bend release
| brb Bend release bend

************************************
Добавлено: 24.06.2013
Другие материалы по этой песне:
  • Аккорды и текст

Страница создана 24.06.2013
http://primanota.ru/martin-sexton/marry-me-chords.htm
Привет, Гость.
Предлагаем пройти революционный курс по гитаре.
Подарок от PrimaNota.Ru, забирай!