PrimaNota.ru - самый крупный в мире бесплатный архив песенных текстов, аккордов, табулатур и нот


Martin Jondo - Ten Million Miles - таба, видео

Регистрация Запомнить меня
Войти через:  Facebook Google Twitter Vk Yandex Mail.ru

Martin Jondo - Ten Million Miles - таба, видео

Печатать
Просмотров: 75
Уроки эстрадного вокала в Санкт-Петербурге
----------------------------------------------------------------------
Martin Jondo - Ten Million Miles
Pure

Tabbed by egidio, December 09

Tuning : Standard

----------------------------------------------------------------------
I tabbed this by ear listening to the album-version, if you find 
errors just tell me.

Have fun.

----------------------------------------------------------------------
Picking patterns:

(Pick-Em-Bm-C-G-F#):

  Em               Bm               C                G       F#       
  1   2   3   4    1   2   3   4    1   2   3   4    1   2   3   4    
e|----------------|----------------|----------------|----------------|
B|--------0-------|--------3-------|--------1-------|----0-------3---|
G|----0-------0---|----4-------4---|----0-------0---|----0-------0---|
D|--2---2---2---0-|--4---4---4---0-|--2---2---2---2-|----------------|
A|----------------|2---------------|3---------------|----------------|
E|0---------------|----------------|----------------|3-----3-2-----2-|


(Pick-C-D-Em-Em):

  C                D                Em               Em               
  1   2   3   4    1   2   3   4    1   2   3   4    1   2   3   4    
e|----------------|----------------|--------0-------|--------0-------|
B|--------1-------|--------3-------|--------0-------|--------0-------|
G|----0-------0---|----0-------0---|----0-------0---|----0-------0---|
D|--2---2---2-----|--4---4---4---4-|--2---2---2---2-|--2---2---2---2-|
A|3-------------5-|5---------------|----------------|----------------|
E|----------------|----------------|0---------------|0---------------|


(Pick-Em-C-G):

  Em               C                G              
  1   2   3   4    1   2   3   4    1   2   3   4    1   2   3   4    
e|----------------|----------------|----------------|----------------|
B|--------0-------|------1---------|--------0-------|----------------|
G|------0---0---0-|----0-----0---0-|------0---0---0-|----0-----0-----|
D|----2-------2---|------------2---|----0-------0---|--0-----0-------|
A|----------------|3---------------|----------------|----------------|
E|0---------------|----------------|3---------------|2-----3-----2-3-|


Substitute the open D string for the last note 
in the first two patterns ( i.e for f# in (Pick-Em-Bm-C-G-F#) or 
for e in (Pick-C-D-Em-Em) ), if the next picking pattern 
after it will be (Pick-C-D-Em-Em).

----------------------------------------------------------------------
Strumming:

Used Chords:


    EADGBe

Standard:
Em  022000
Bm  x24430
C   x32010
G   320003

Definition:
D   x5403x
F#  22xxxx


Strumming pattern:
1 & 2 & 3 & 4 &
D   X U   U X U


For strummingparts I just write the chordletters.

----------------------------------------------------------------------

(Pick-Em-Bm-C-G-F#)

(Pick-Em-Bm-C-G-F#)

(Pick-C-D-Em-Em)

(Pick-C-D-Em-Em)



(Pick-Em-Bm-C-G-F#)
Any time I can't see you I don't feel fine
(Pick-Em-Bm-C-G-F#)
Any time I spot a rainbow I find teardrops in my soul and mind 'cause
(Pick-C-D-Em-Em)
'cause you rule my destiny
(Pick-C-D-Em-Em)
You are the one who can set me free


Em  Bm  C  G  F#
Any time when my blood is running because of fear
Em  Bm  C  G  F#
My heart could be so save yeah, if you could be here
C  D  Em  Em
Just to dry all my tears
C  D  Em  Em
To make me strong to overcome my fears

C  D  Bm  Em
So I am running yes I am running into my soul
C  D  Em  Em
'cause this is the only way I can go, which I can go
C  D  Bm  Em
I am running, yes i am running into my soul
C  D
'cause this is the only way I can go


(Pick-Em-C-G)

(Pick-Em-C-G)

(Pick-Em-C-G)
Ten million miles deep in my soul
(Pick-Em-C-G)
Ten million miles deep in my soul


Em  Bm  C  G  F#
Oh it's so eerie to feel more than words can express
Em  Bm  C  G  F#
And I'm so tired, I need a place where I can rest
Em  Bm  C  G  F#
But if I'm on my way I see you also can't stay
Em  Bm  C  G  F#
So could I ever reach my hope 'cause I can't catch it with no rope


C  D  Em  Em
And my feelings predicting I will fail
C  D  Em  Em
'cause I am bound in this jail, in this jail
C  D  Em  Em
Feelings predicting I will fail
C  D  Em  Em
'cause I am bound, I am bound in this jail


C  D  Bm  Em
So I am running yes I am running into my soul
C  D  Em  Em
'cause this is the only way I can go, which I can go
C  D  Bm  Em
I am running, yes I am running into my soul
C  D
'cause this is the only way I can go


(Pick-Em-C-G)

(Pick-Em-C-G)



(Pick-Em-C-G)
Ten million miles deep in my soul
(Pick-Em-C-G)
Ten million miles deep in my soul
(Pick-Em-C-G)
Ten million miles deep in my soul
(Pick-Em-C-G)
Ten million miles
 
 
(Pick-Em-C-G)
Добавлено: 13.10.2013
Другие материалы по этой песне:
  • Аккорды и текст

Страница создана 13.10.2013
http://primanota.ru/martin-jondo/ten-million-miles-chords.htm
Привет, Гость.
Предлагаем пройти революционный курс по гитаре.
Подарок от PrimaNota.Ru, забирай!