PrimaNota.ru - самый крупный в мире бесплатный архив песенных текстов, аккордов, табулатур и нот


Martin Hayes - Paddy Faheys Reel - Suitable For Violin And Mandolin - таба, видео

Регистрация Запомнить меня
Войти через:  Facebook Google Twitter Vk Yandex Mail.ru

Martin Hayes - Paddy Faheys Reel - Suitable For Violin And Mandolin - таба, видео

Печатать
Просмотров: 111
--------------------------------------------------------------------------------------------------
                   Paddy Fahey's Reel (Fiddle tune transposed for Mandolin)
--------------------------------------------------------------------------------------------------
Tabbed by: Phelim McGowan

I originally heard this tune as the opening track on Martin Hayes and Dennis Cahill's 

'The Lonesome Touch' (1997) - played on the violin. I nutted it out on the mandolin

 - the positions are the same for mandolin and violin if you are handy at reading tab.

If you listen to the track you will pick up the rhythm.


This acts as a good guide for me when playing along to this track. There may be a few slight

bells and whistles missing from the original arrangement(as is standard with any

 Martin Hayes treatment of traditional Irish music) but this 'bare bones' version should provide

a good foundation for those keen to learn it and you can add the fancy stuff in when

you familiarize yourself with the tune.


I hope this is useful for people out there. 

 
Standard Tuning: G,D,A,E


(PART 1 Played Twice)

E|------------------5-3-2-3--------------------------------|
A|---------2-5-2-3----------5-3-2-------2-3-5-2-3-2-0------|
D|-----0-5------------------------5-5-5---------------5-4-0|
G|0--4-----------------------------------------------------|


E|----------------------5-3-2-3------------------------------|
A|-------------2-5-2-3----------5-3-2-------2-3-5-2-3-0---0--|
D|---------0-5------------------------5-5-5-------------4---5|
G|5-2-0--4---------------------------------------------------|


(PART 2 Played Twice)

E|----333-2-5-3------------------------5-5-3-5---3-2---5---7---5--|
A|2-5-----------5-2-------0-2-3--5-3-0---------------5---5---5---5|
D|------------------5-4-5-----------------------------------------|
G|----------------------------------------------------------------|

E|333-2-5-3------------------------3-3-3---0-2------------|
A|----------5-2-------0-2-3--2-3-5-------5-----5-3-0---0--|
D|--------------5-4-5--------------------------------4---5|
G|--------------------------------------------------------|

Use the link below to listen to this tune:

https://youtu.be/5H2fL_ISnAQ

*************************************************************************************************
Добавлено: 28.06.2016
Другие материалы по этой песне:
  • Аккорды и текст

Страница создана 28.06.2016
http://primanota.ru/martin-hayes/paddy-faheys-reel-suitable-for-violin-and-mandolin-chords.htm
Привет, Гость.
Предлагаем пройти революционный курс по гитаре.
Подарок от PrimaNota.Ru, забирай!