PrimaNota.ru - самый крупный в мире бесплатный архив песенных текстов, аккордов, табулатур и нот


Martin Garrix - Forbidden Voices - таба, видео

Регистрация Запомнить меня
Войти через:  Facebook Google Twitter Vk Yandex Mail.ru

Martin Garrix - Forbidden Voices - таба, видео

Печатать
Просмотров: 238
Уроки эстрадного вокала в Санкт-Петербурге
Авторы: Martijn Garritsen, Martina Sorbara, Joren Van Der Voort

-------------------------------------------------------------------------------
                             Forbidden Voices - Martin Garrix
-------------------------------------------------------------------------------
Tabbed by: lenplaymusic
E-mail:not@importand.com

when i heard this song for the first time i wanted to learn and play it on the guitar right away,
but i couldn't find it here so i tried searching for the right places to put my fingers and this
is what i think is right.
enjoy playing!!

Tuning: standard

e|--------------------|--------------------|---------------------------|---------------------|
B|--------------------|--------------------|---------------------------|---------------------|
G|--------------------|--------------------|--------------6/5----------|---------------------|
D|---------8----------|----------6---------|---------6---------8---6---|---6-----------------|     x6
A|---8-----------8----|----8---------------|----8----------------------|------8---6----------|
E|--------------------|---------------9----|---------------------------|--------------9------|

CHORUS
e|--------------------|--------------------|---------------------------|---------------------|
B|--------------------|--------------------|---------------------------|---------------------|
G|--------------------|--------------------|--------------6/5----------|---------------------|
D|---------8----------|----------6---------|---------6---------8---6---|---6-----------------|
A|---8-----------8----|----8---------------|----8----------------------|------8---6----------|
E|--------------------|---------------9----|---------------------------|--------------9------|

e|--------------------|--------------------|---------------------------|---------------------|
B|--------------------|--------------------|-------------------7---6---|---------------------|
G|--------------------|--------------------|--------------6/5----------|---6------8---6------|
D|---------8----------|----------6---------|---------6-----------------|------6--------------|
A|---8-----------8----|----8---------------|----8----------------------|---------------------|
E|--------------------|---------------9----|---------------------------|---------------------|

the other part is comming later bye!!
Добавлено: 09.09.2015
Вам также может быть интересно:
Другие материалы по этой песне:
  • Аккорды и текст

Страница создана 09.09.2015
http://primanota.ru/martin-garrix/forbidden-voices-chords.htm
Привет, Гость.
Предлагаем пройти революционный курс по гитаре.
Подарок от PrimaNota.Ru, забирай!