PrimaNota.ru - самый крупный в мире бесплатный архив песенных текстов, аккордов, табулатур и нот


Martin Courtney - Northern Highway - таба, видео

Регистрация Запомнить меня
Войти через:  Facebook Google Twitter Vk Yandex Mail.ru

Martin Courtney - Northern Highway - таба, видео

Печатать
Просмотров: 80
Northern Highway
 Martin Courtney


Intro:

  e|-----3-------3-2------2---------------|
  B|---0---0---2----3-0h3---3--------------|
  G|-0-------2----------------------------|
  D|--------------------------------------|
  A|--------------------------------------|
  E|--------------------------------------| x3

Strumming part:
  
    Guitar 1
     D                               A7
  e|-------------------------------|-------------------------------|
  B|-------------------------------|-------------------------------|
  G|-------------------------------|-------------------------------|
  D|-------------------------------|-------------------------------|
  A|-------------------------------|-------------------------------|
  E|-------------------------------|-------------------------------| This goes once before guitar 2 comes in


   Guitar 2
  e|-------------------------------|-------------------------------|
  B|--------------------0----------|-------------------------------|
  G|-4--2--0-----------(0)---------|-------------------------------|
  D|---------4-2-0---0-------------|-------------------------------|
  A|-------------------------------|-------------------------------|
  E|---------------3---------------|-------------------------------|

  e|-------------------------------|-------------------------------|
  B|--------------------0----------|-------------------------------|
  G|-4--2--0-----------(0)---------|-------------------------------|
  D|---------4-2-0---0-------------|-------------------------------|
  A|-------------------------------|-------------------------------|
  E|---------------3---------------|-------------------------------|

  e|----------------------0----------0-----------------------------|
  B|--------------------0---0------0---0---2-----------------------|
  G|-4--2--0-----------(0)----0----0-----0-2-----------------------|
  D|---------4-2-0---2-----------2---------------------------------|
  A|---------------------------------------------------------------|
  E|---------------0------------0----------------------------------|

Добавлено: 02.04.2016
Другие материалы по этой песне:
  • Аккорды и текст

Страница создана 02.04.2016
http://primanota.ru/martin-courtney/northern-highway-chords.htm
Привет, Гость.
Предлагаем пройти революционный курс по гитаре.
Подарок от PrimaNota.Ru, забирай!