PrimaNota.ru - самый крупный в мире бесплатный архив песенных текстов, аккордов, табулатур и нот


Martin Carthy - Lovely Joan - таба, видео

Регистрация Запомнить меня
Войти через:  Facebook Google Twitter Vk Yandex Mail.ru

Martin Carthy - Lovely Joan - таба, видео

Печатать
Просмотров: 43
-------------------------------------------------------------------------------
                             Lovely Joan - Martin Carthy
-------------------------------------------------------------------------------
Tabbed by: Gareth Davies
E-mail: gareth90davies@btinternet.com

This is based on the version on the Sound Techniques DVD: Guitar Maestros Series 1: Martin Carthy. He does a
number of variations to the verses and I've had a go at capturing the main ones. The accompaniment to the
verses is pretty sparse, so to get the timing you need to listen to him playing it. There are a couple
of breaks between verses, some parts of which he plays higher up the neck. 

Most of the bass notes are muted. The notes in brackets are fingered with the left hand but not actually
played with the right, so they're a bit like hammer-ons, and they give an idea of the chord.  

Tuning: CGCDGA

Intro
    C         F    C       F     C      F    G   C             G          C       F      C    Csus4  G7 
A|--0-------------------|----------------------|---0-------5------0------------|-----0-----------------|
G|----4-5---0-----------|-----0------------0---|--0--4--5---5--4----0-----0----|----0--4-5---0-------0-|
D|--------------0---0---|-----------0--------0-|--------5----------------------|-----------------0---0-|
C|--------4---5---2-2---|--/5---5\4---0--------|-----------------------4-----0-|-4/5-------4---5---2-2-|
G|------5-----------0---|---------------10---7-|-------(5)---------------------|---------5-----------0-|
C|--0-------------------|----------------------|-0------0------0------(4)-0----|-----------------------|

Verse

A|--0---------------|-----------------------|--0-----------------|------0---------------------|
G|-----5----0-----0-|-----0------------0----|------5-------0-----|-----0---5----0----------0--| 
D|-------------0--0-|-----------0---------0-|------5---------(5)-|---------5---------0-----0--|
C|--------4---5---2-|--/5---5\4---0---------|---------0h4--------|--4/5-------4---5-----2-----|
G|-----5----------0-|---------------10----7-|-----(5)---------5--|--------(5)--------------0--|
C|--0---------------|-----------------------|--0--------4--------|---------0------------------|

Verse variations

A|--0--------------|---------------------------|--0----------------|-------------------|
G|--0--0-----------|-------0-------------0-----|------5------------|--------------0----|
D|-----5--------0--|-------------0-----------0-|------5------------|--4--5----0---0----|
C|-------4/5-------|--4/5----5\4---0-----------|----------5--4--0--|--------5----------|
G|-----5--------0--|-----------------10------7-|------5------------|--4--5-------7-----|
C|--0----4/5--7----|----0----0-----------------|--0-------5--4--0--|-------------------|

Break/verse variations

A|-------0--------------------|-------------------------|---0----------------0-------|-----0---------------|
G|-----0------------0-------0-|-----0--------------0----|--0-------7----------0---0--|----0--5---0-------0-|
D|---------9--10--------0---0-|-----------0----------0--|-----9-10---10--------------|-------5-------0---0-|
C|-5/7----------------5---2---|-4/5---5\4---0-----------|--------------9/11--------0-|-4/5-----4---5---2---|
G|----------------9---------0-|----------------10----7--|----------------------9-----|-------------------0-|
C|-------------0--------------|-------------------------|-0------0-------------------|-------0-------------|

Suggested variation (he doesn't play it exactly like this but it's a bit simpler and it sounds ok)

A|-----0-------------------|-------0-----------------|---0------------0-----------|-----0---------------|
G|---0---4--5---------0----|-----0--------------0----|--0--4--5----4----0----0----|----0--0-------------|
D|----------5------------0-|----------5-----------0--|--------5-------------------|-------5--------0--0-|
C|-------------4----5----2-|-4/5---------0--5/7------|--------------------4-----0-|-4/5------0--0h5---2-|
G|----------5--------------|----------5-----------7--|--------5-------------------|-------5-----------0-|
C|-0-----------------------|-------------------------|-0-----------0---------0----|---------------------|


************************************

| /   slide up
| \   slide down
| h   hammer-on
| p   pull-off
| ~   vibrato
| +   harmonic
| x   Mute note
| b   Bend
| pb  Pre-bend
| br  Bend release
| pbr Pre-bend release
| brb Bend release bend

************************************
Добавлено: 25.05.2016
Другие материалы по этой песне:
  • Аккорды и текст

Страница создана 25.05.2016
http://primanota.ru/martin-carthy/lovely-joan-chords.htm
Привет, Гость.
Предлагаем пройти революционный курс по гитаре.
Подарок от PrimaNota.Ru, забирай!