PrimaNota.ru - самый крупный в мире бесплатный архив песенных текстов, аккордов, табулатур и нот


Mars Volta - Roulette Dares The Haunt Of - бас-таба, видео

Регистрация Запомнить меня
Войти через:  Facebook Google Twitter Vk Yandex Mail.ru

Mars Volta - Roulette Dares The Haunt Of - бас-таба, видео

Печатать
Просмотров: 91
Band: The Mars Volta
Song: Roulette Dares (the haunt of)
Album: De-Loused In The Comatorium
Tabbed by: choke383
Normal Tuning: GDAE


0:17 (when and after the 1 are played its more continuous that juste the 1-11--1-11 etc.)
G|-----------------------------------------------------------------------7-77--|
D|------------5---------------------5-------------------5-55-------------------|
A|0-00--3-33-----5-7-5--0-00--3-33-----5-7-------------------5-55--5-55--------|
E|------------------------------------------1-11--1-11-------------------------|x3


0:41
G|------------------------------------------------|
D|-----5-7--5--------5-7-5----------5-------------|
A|---7--------7----7-------7-5--5h7---7--3333333--|
E|5-------------5---------------------------------|

G|----------------------------------------------------|
D|-----5-7--5--------5-7-5----------5-7---------------|
A|---7--------7----7-------7-5--5h7-----3--2h3p2------|
E|5-------------5--------------------------------3-0--|

G|-----------------------------------------------|
D|-----5-7--5--------5-7/9-7-5-----5h7p5---------|
A|---7--------7----7-----------5--------5--3--2--|
E|5-------------5--------------------------------|

G|-----------------------------------------------|
D|-----5-7--5---------97-5-----------------------|
A|---7--------7---7-10----75--5-5-5-3-3-3-3-5-7--|
E|5-------------5--------------------------------|

G|-----------------------------------------|
D|-----5-7--5--------5-7-5----------5-7----|
A|---7--------7----7-------7-5--5h7-----3--|
E|5-------------5--------------------------|



1:25
G|---------------------------------------------|
D|----------------------------------------0-2--|
A|5----3-5-3-0---0-2-33333333333333333333------|
E|---------------------------------------------|

G|---------------------------------------------|
D|--------------------------------0h2---0------|
A|5----3-5-3-0---0-2-333333333333---------3-2--|
E|---------------------------------------------|

G|--------------------------------5-----7-5----|
D|------------------------------5---75-----75--|
A|5----3-5-3-0---0-2-333333-5-7-------7--------|
E|---------------------------------------------|

G|----------------------------------5------------|
D|------------------------------------7-5-3------|
A|5----3-5-3-0---0-2-3333333333-5-7---------3-5--|
E|-----------------------------------------------|


1:59
G|-----------------------------------------------|
D|------------5-55------------------------5------|
A|0-00--3-33-------5-7-5--x-x-x-xx-x-xx-x---5-7--|
E|-----------------------------------------------|x3

G|------------------------|
D|------------5-55--------|
A|0-00--3-33-------5-7-5--|
E|------------------------|


2:51
G|------------|
D|------5-----|
A|0--3-----5--|
E|------------|x4

3:00
G|-----------------------------------------------------------------7--7-7-7--|
D|---------5------------------5----------------5--5-5-5----------------------|
A|0--3-3-3----5-7-5--0--3-3-3---5-7----------------------5--5-5-5------------|
E|-----------------------------------1--1-1-1--------------------------------|

G|-----------------------------------------------------------------------7-77--|
D|------------5---------------------5-------------------5-55-------------------|
A|0-00--3-33-----5-7-5--0-00--3-33-----5-7-------------------5-55--5-55--------|
E|------------------------------------------1-11--1-11-------------------------|x2


3:25
G|------------------------------------------0-2--|
D|--------------------------------------0h2------|
A|5----3-5-3-0---0-2-333333333333333333----------|
E|-----------------------------------------------|

G|------------------------------0-2-----------------|
D|--------------------------0h2---------------------|
A|5----3-5-3-0---0-2-333333---------555555-0h3-2-0--|
E|--------------------------------------------------|

G|--------------------------------5-4-2--------|
D|--------------------------------------5------|
A|5----3-5-3-0---0-2-333333333333---------5-3--|
E|---------------------------------------------|

G|----------------------------------------------|
D|----------------------------------------------|
A|5----3-5-3-0---0-2-3333333333333333333--------|
E|-----------------------------------------5-3--|


3:58
G|-------------------------------------------12-10-----------9----9---9--|
D|-----------------7------7---7---------------------10----7----7----7----|
A|8------8----8-10------7---7----7-10-9-8---------------8----------------|
E|-----8----8------------------------------------------------------------|

G|-----------------------------------------------------------------------------------|
D|7-10---------------------7------107--9h10p9-7-----------------------77-7-77-71097--|
A|-----8------8---8----8-7-------8--------------8-88-8--8-88-8-88--10----------------|
E|----------8---8----8----------8----------------------8-8---------------------------|

G|--9-7-------------------------------------------------------10-----------10------|
D|7-----7--------------10-9-----------------7-77---7---7-9-10----10-9--------------|
A|--------7-8----8---8------8----8---8-7-10------7---7----------------8---------8--|
E|-------------8---8-----------8---8-------------------------------------8----8----|

G|--10--------10-------------------------------------------------|
D|---------10----10---109-7----7---7----7-10-7----7-107----------|
A|-------8----------8----8---7---7----7---------7------10781098--|
E|8----8---------------------------------------------------------|


4:56
G|-------------------------------------------|
D|---------------------------------------5~--|
A|5----3-5-3-0---0-2-3333333333333333333-----|
E|-------------------------------------------|

G|------------------------------------------------|
D|---------------------------------------3h5-3-2--|
A|5----3-5-3-0---0-2-3333333333333333333----------|
E|------------------------------------------------|

G|-------------------------------555555555555--|
D|---------------------------------------------|
A|5----3-5-3-0---0-2-333333333333--------------|
E|---------------------------------------------|

G|----------------------------------------------------|
D|--------------------------------3h5/10101010101010--|
A|5----3-5-3-0---0-2-333333333333---------------------|
E|----------------------------------------------------|


5:30
G|--------------------------------------------------------------------|
D|--------------------------------------------------------------------|
A|8------8--8-10-8-0-5h7-777-7-7-0-5h7-777-7-7----3-3-3----2h333-2h3--|
E|-----8---------------------------------------1--------1-------------|

G|---------------------------------------------------------------------------99-77--------|
D|----------------------------------------10-9---------1010-99-77-------1010-------1010\--|
A|0-5h7-777-7-7-0-5h7-777-7-7-8----8-8--8------000-777------------00-77-------------------|
E|----------------------------------------------------------------------------------------|

G|--------10-12-10--14---------9-----------------------------------9-------12---------|
D|-----10--------------14---------7-10-------------------7--9h10-7---7/(10)---10-9----|
A|8------------------------0-7---------7-8------8--8-8-7------------------------------|
E|--------------------------------------------8------------------------------------1--|

G|-----------------------------------------------------------------------------------------|
D|------------------------------------------------------10--------------10-----10-----10-7-|
A|3-3-3----2h333-2h3-0-5h7-777-7-7-0-5h7-777-7-7-8--7h8----8-7-8-8--7h8----7h8----7-8------|
E|------1----------------------------------------------------------------------------------|

G|--------------------------------------------------------------------------------|
D|---------------------------------------10-9-7-10-9-7----------------------------|
A|0-0-0-----------------------------0------------------10-7-8---8----8-8-8-8-8-0--|
E|-------7--8--1--1-1-1-1-1-1-1-1-1---------------------------8-------------------|

G|---------------------------|
D|---------------------------|
A|0-0-0-5-7-0--------5-7-----|
E|------------------------1--|


All the 0 you dont wanna play just do a 5 on the lower string


Any comments, questions or jokes send to style444@hotmail.com
Добавлено: 04.07.2012
Другие материалы по этой песне:
  • Аккорды и текст

Страница создана 04.07.2012
http://primanota.ru/mars-volta/roulette-dares-the-haunt-of-chords.htm
Привет, Гость.
Предлагаем пройти революционный курс по гитаре.
Подарок от PrimaNota.Ru, забирай!