PrimaNota.ru - самый крупный в мире бесплатный архив песенных текстов, аккордов, табулатур и нот


Mars Red Sky - Strong Reflection - бас-таба, видео

Регистрация Запомнить меня
Войти через:  Facebook Google Twitter Vk Yandex Mail.ru

Mars Red Sky - Strong Reflection - бас-таба, видео

Печатать
Просмотров: 315
                             Strong Reflection - Mars Red Sky
-------------------------------------------------------------------------------
Tabbed by: kicaUBUNTU
E-mail: kicaUBUNTU@gmail.com

Tuning:B

just repeat until chorus, many times:)
G|--------------------------------------------------------------------|
D|--------------------------------------------------------------------|
A|------------8-5---------------3------3------------------------------|
E|----0---------------5-------3----3-5--------------------------------|

chorus
G|-------------------------------------------------------------------------|
D|-------------------------------------------------------------------------|
A|---1-1-1-1------------------------8-5-------------------3-------3--------| X4
E|-------------3-3-3-5--------0---------------5---------3-----3-5----------|

but then goes after chorus
G|------------------------------------------------------------------------|
D|------------------------------------------------------------------------|
A|--------8-5------------3------4----------  8-5------3----7------  ------|   X2
E|----0----------5------3----3--------  0-----------3---3--------    -----|

this time 8x and the chorus again..
G|----------------------------------------------------------------------|
D|----------------------------------------------------------------------|
A|-------------8-5-----------------3-----3------------------------------| x8
E|----0----------------5---------3---3-5--------------------------------|

G|------------------------------------------------------------------------|
D|------------------------------------------------------------------------|
A|---1-1-1-1------------------------8-5-------------------3-------3-------|x4
E|-------------3-3-3-5--------0---------------5---------3-----3-5---------|


G|-----------------------------------------------------------------------|
D|-----------------------------------------------------------------------|
A|--------8-5------------3------4----------  8-5------3----7------   ----|x2
E|----0----------5------3----3--------  0-----------3---3----------------|

and then same as at begining..

during the solo play same as chorus..

http://marsredsky.bandcamp.com/

| /  slide up
| \  slide down
| h  hammer-on
| p  pull-off
| ~  vibrato
| +  harmonic
| x  Mute note
Добавлено: 01.05.2014
Другие материалы по этой песне:
  • Аккорды и текст

Страница создана 01.05.2014
http://primanota.ru/mars-red-sky/strong-reflection-chords.htm
Привет, Гость.
Предлагаем пройти революционный курс по гитаре.
Подарок от PrimaNota.Ru, забирай!