PrimaNota.ru - самый крупный в мире бесплатный архив песенных текстов, аккордов, табулатур и нот


Maroon - The Omega Suite - таба, видео

Регистрация Запомнить меня
Войти через:  Facebook Google Twitter Vk Yandex Mail.ru

Maroon - The Omega Suite - таба, видео

Печатать
Просмотров: 130
-------------------------------------------------------------------------------
                             The Omega Suite - Maroon
-------------------------------------------------------------------------------
Tabbed by:Stephen Glade


Tuning:Standard EBGDAE
      Intro: x4
e|-------------------------------------------------------------------------|
B|-------------------------------------------------------------------------|
G|--------0----------------------------------------------------------------|
D|----4-----4---4-------4-2-0---0------------------------------------------|
A|--2---2-----2-------2-------4--------------------------------------------|
E|0-----------------0------------------------------------------------------|

e|-------------------------------------------------------------------------|
B|-------------------------------------------------------------------------|
G|--------0----------------------------------------------------------------|
D|----4-----4----4----------0--4--0----------------------------------------|
A|--2---2------2-------0--2---------4--4--0--------------------------------|
E|3------------------------------------------------------------------------|

      Riff 1:7x   

e|-------------------------------------------------------------------------|
B|-------------------------------------------------------------------------|
G|-------------------------------------------------------------------------|
D|2-------5-------4-------5------------------------------------------------|
A|2-------5-------4-------5------------------------------------------------|
E|0-------3-------2-------3------------------------------------------------|

      Riff 2:8x

e|-------------------------------------------------------------------------|
B|-------------------------------------------------------------------------|
G|-------------------------------------------------------------------------|
D|-------------------------------------------------------------------------|
A|5----4----5---7----5----7---5----4----5---9----7----9--------------------|
E|--00---00---0---00---00---0---00---00---0---00---00---0------------------|

Intro: 4x

Riff 1: 7x

Riff 2: 8x

Riff 1: 5x

Intro: 5x
************************************

| /   slide up
| \   slide down
| h   hammer-on
| p   pull-off
| ~   vibrato
| +   harmonic
| x   Mute note
| b   Bend
| pb  Pre-bend
| br  Bend release
| pbr Pre-bend release
| brb Bend release bend

************************************
Добавлено: 03.11.2013
Другие материалы по этой песне:
  • Аккорды и текст

Страница создана 03.11.2013
http://primanota.ru/maroon/the-omega-suite-chords.htm
Привет, Гость.
Предлагаем пройти революционный курс по гитаре.
Подарок от PrimaNota.Ru, забирай!