PrimaNota.ru - самый крупный в мире бесплатный архив песенных текстов, аккордов, табулатур и нот


Maroon 5 - Soap Disco - текст песни, таба, видео

Регистрация Запомнить меня
Войти через:  Facebook Google Twitter Vk Yandex Mail.ru

Maroon 5 - Soap Disco - текст песни, таба, видео

Печатать
Просмотров: 238
Show u'r best in playin' this song.

Soap Disco by Maroon 5
Transcribed by Alvin and Danu

p   = Pull-Off
h   = Hammer-On
s   = slide
br  = bend & release
~   = vibrato
<>  = artificial harmonics


G    : 355433		Bm   : x24422
Am   : 577555		Gm(1): 355333
Dsus2: x5775x		Gm(2): x1012121010

    G 	   Am	   Dsus2	Bm	Gm(1)	  Gm(2)
E|--3-------5--------x----------2---------3---------x---------------------|
B|--3-------5--------5----------2---------5---------10--------------------|
G|--4-------5--------7----------4---------5---------12--------------------|
D|--5-------7--------7----------4---------3---------12--------------------|
A|--5-------7--------5----------2---------3---------10--------------------|
E|--3-------5--------x----------x---------3---------10--------------------|


Verse 1:

G		Am
The crowd was getting old
G		Am
The disco's back or so I'm told
G		Am
But we've got nothing here
G		Am
Except a tired set of ears and we say

Chorus 1:

Dsus2	 Bm
Hey mama, I'm something
Gm(1)		           Gm(2)
Check it out, see what it's all about
	    Dsus2      Bm
Cos this is soap disco, so charming
Gm(1)		      Gm(2)
See the floor from a cleaner point of view


Verse 2:
(play with palm mute)

G	     Am
The children had the time
G	   Am
To overthrow the slime
G	    Am
The superchildren said they could see


Chorus 2:

Dsus2		 Bm
Bright lights and clean colors
Gm(1)		  	   Gm(2)
Check it out, see what it's all about
Dsus2		      Bm
Cos this is soap disco, so charming
Gm(1)		     Gm(2)
See the floor from a cleaner point of view

Solo 1:

E|------------------------------------------------------------------------|
B|----8-7--------------8-7------------------------------------------------|
G|--4-----9-7-6~-----4-----9-7-6~--4h6p4--4-4-7s12-11-9p7-6~--<6~>--------|
D|------------------------------------------------------------------------|
A|------------------------------------------------------------------------|
E|------------------------------------------------------------------------|


E|------------------------------------------------------------------------|
B|------------------------------------------------------------------------|
G|--4s12-11-9-7-6~--------------------------------------------------------|
D|------------------------------------------------------------------------|
A|------------------------------------------------------------------------|
E|------------------------------------------------------------------------|


Back to chorus 2 and then
(play with clean effect)

E|--2---2----------2---2---------3---3------5------3----------------------|
B|--3-----3---3----3-----3---3---3-----3------3------3--------------------|
G|--2-------2------4-------4-----4-------4------4------4------------------|
D|-------------------------------5----------------------------------------|
A|------------------------------------------------------------------------|
E|------------------------------------------------------------------------|

E|--------2-----------2-----2-----2------3-----3-----3-----5-----3-----3--|
B|----3-----3---3-------3-----3-----3------3-----3-----3-----3-----3------|
G|--2---2-----2-----------4-----4------------4-----4-----------4-----4----|
D|------------------------------------------------------------------------|
A|------------------------------------------------------------------------|
E|------------------------------------------------------------------------|

and then go to solo 2 (play with distortion effect):

E|--17br------------------------------------------------------------------|
B|---------------15--15h17s19--------------15-17br-17br-------------------|
G|-------14-15-16--16----------------14-16--------------------------------|
D|--------------------------------17--------------------------------------|
A|------------------------------------------------------------------------|
E|------------------------------------------------------------------------|

E|--22br------------------------------------------17-19----17~-----22br---|
B|---------------15--15h17s19---------------------------19----------------|
G|-------14-15-16--16-------------12h14-12h14-16--------------------------|
D|------------------------------------------------------------------------|
A|------------------------------------------------------------------------|
E|------------------------------------------------------------------------|

Back to Chorus 1

and then: Dsus2 Bm Gm(1) Gm(2)
	  Dsus2 Bm Gm(1) Gm(2) and play this again with clean effect


E|--2---2----------2---2---------3---3------5------3----------------------|
B|--3-----3---3----3-----3---3---3-----3------3------3--------------------|
G|--2-------2------4-------4-----4-------4------4------4------------------|
D|-------------------------------5----------------------------------------|
A|------------------------------------------------------------------------|
E|------------------------------------------------------------------------|

and then: Dsus2 Bm Gm(1) Gm(2) Dsus2

Note: when you play Dsus2 on last, just do 1 strumming and Stop. So Cool, dude.
I'm pretty sure about this tab, but if there is any mistake please mail me in
break_da_spell@yahoo.com for some correction.
Thanks and enjoy...

Добавлено: 18.06.2012
Другие материалы по этой песне:
  • Аккорды и текст

Страница создана 23.03.2012
http://primanota.ru/maroon-5/soap-disco-chords.htm
Привет, Гость.
Предлагаем пройти революционный курс по гитаре.
Подарок от PrimaNota.Ru, забирай!