PrimaNota.ru - самый крупный в мире бесплатный архив песенных текстов, аккордов, табулатур и нот


Maroon 5 - She Will Be Loved Live - таба, видео

Регистрация Запомнить меня
Войти через:  Facebook Google Twitter Vk Yandex Mail.ru

Maroon 5 - She Will Be Loved Live - таба, видео

Печатать
Просмотров: 329
Уроки эстрадного вокала в Санкт-Петербурге
Standard Tuning
No Capo
This is how they play it live on an acoustic. James Valentine (the guitarist) teaches it here:
https://www.youtube.com/watch?v=LhEcT_6xi7M
Credit to him, I (Judith) just wrote it down.
Add or subtract hammers and slaps on strings where it feels natural to you.

Intro/Verse:

E|----------------------------------------------------------------|
B|----------------------------------------------5-x----5-x-7--5-x-|
G|----7-x-------7-x----6-x-6h7-6-x----7-x-------7-x----6-x-6--6-x-|
D|----7-x----7----x----7-x-7---7-x----7-x----7----x----7-x-7--7-x-|
A|------------------0-------------------------------0-------------|
E|--7------7------------------------7------7----------------------|

E|-----------------------------------------------------------------|
B|----------------------------------------------5-x----5-x-7--8-x--|
G|----7-x-------7-x----6-x-6h7-6-x----7-x-------7-x----6-x-6--6-x--|
D|----7-x----7----x----7-x-7---7-x----7-x----7----x----7-x-7--7-x--|
A|------------------0-------------------------------0--------------|
E|--7------7------------------------7------7-----------------------|

Chorus:

E|-------------------------------------------------------------------|
B|-----7-x-------7-x----5-x-7--5-x----------------5-x-----5-x-7--8-x-|
G|-----7-x-------7-x----6-x-6--6-x-----7-x--------7-x-----6-x-6--6-x-|
D|-----7-x----7----x----7-x-7--7-x-----7-x-----7----x-----7-x-7--7-x-|
A|--5------5---------0---------------------------------0-------------|
E|---------------------------------7-------7-------------------------|

E|-----------------------------------------------------------------2--|
B|----7-x-------7-x----5-x-7--5-x---------------5-----------3-x-3--3--|
G|----7-x-------7-x----6-x-6--6-x------7--------7-----------0-x-0--0--|
D|----7-x----7----x----7-x-7--7-x------7-----7---------------------0--|
A|--5------5---------0------------------------------------------------|
E|---------------------------------7-------7--------0--2--3-----------|

E|---------------------------------------------------------------------2--|
B|-----7-x-------7-x----5-x-7--5-x----------------5-------------3-x-3--3--|
G|-----7-x-------7-x----6-x-6--6-x-----7-x--------7-------------0-x-0--0--|
D|-----7-x----7----x----7-x-7--7-x-----7-x-----7-----------------------0--|
A|--5------5---------0----------------------------------------------------|
E|---------------------------------7-------7----------0--2--3-------------|

E|----5-x-------5-x--------------------------------------------------2--|
B|----3-x-------3-x----2-x-2h3--2-x----3-x-------3------------3-x-3--3--|
G|----2-x----2----x----2-x-2----2-x----4-x-------4------------0-x-0--0--|   x2
D|--0------0-----------2---------------4-x----4----------------------0--|
A|------------------0---------------1------1----------------------------|
E|--------------------------------------------------0--2--3-------------|
Добавлено: 23.04.2015
Другие материалы по этой песне:
  • Аккорды и текст

Страница создана 23.04.2015
http://primanota.ru/maroon-5/she-will-be-loved-live-chords.htm
Привет, Гость.
Предлагаем пройти революционный курс по гитаре.
Подарок от PrimaNota.Ru, забирай!