PrimaNota.ru - самый крупный в мире бесплатный архив песенных текстов, аккордов, табулатур и нот


Maroon 5 - Locked Up - бас-таба, видео

Регистрация Запомнить меня
Войти через:  Facebook Google Twitter Vk Yandex Mail.ru

Maroon 5 - Locked Up - бас-таба, видео

Печатать
Просмотров: 233
Locked Up (also Pleasure Fucker) by Maroon 5
Tabbed by Norman
An unreleased song; Songs About Jane B-Side

(Verse 1):
G --------------------------------------------------|
D --------------------------3-5---------------------|
A ------5-7-5--55--55--55-7-------------------3-5-7-|
E -66-8-------------------------6--66--66--66-------|

G ---------------------------------------------|
D -----------------3-5---------------------3-5-|
A -5--55--55--55-7---------------------5-7-----|
E ---------------------6--66--66--66-----------|

{From here, it's all the same bassline, but I'll tab it anyways}

(Chorus): [x2]
G ------------------------------------------|
D -----------------3-5------------------3-5-|
A -5--55--55--55-7------------------5-7-----|
E ---------------------6--66--66--6---------|


(Verse 2) [x2]
G ------------------------------------------|
D -----------------3-5------------------3-5-|
A -5--55--55--55-7------------------5-7-----|
E ---------------------6--66--66--6---------|


(Chorus): [x2]
G ------------------------------------------|
D -----------------3-5------------------3-5-|
A -5--55--55--55-7------------------5-7-----|
E ---------------------6--66--66--6---------|


(Solo): [x2]
G ------------------------------------------|
D -----------------3-5------------------3-5-|
A -5--55--55--55-7------------------5-7-----|
E ---------------------6--66--66--6---------|


(Chorus): [x2]
G ------------------------------------------|
D -----------------3-5------------------3-5-|
A -5--55--55--55-7------------------5-7-----|
E ---------------------6--66--66--6---------|


(Outro)
G ----------------------|
D ------------------3-5-|
A --------------5-7-----|
E -6--66--66--6---------|
Добавлено: 23.04.2015
Другие материалы по этой песне:
  • Аккорды и текст

Страница создана 23.04.2015
http://primanota.ru/maroon-5/locked-up-chords.htm
Привет, Гость.
Предлагаем пройти революционный курс по гитаре.
Подарок от PrimaNota.Ru, забирай!