PrimaNota.ru - самый крупный в мире бесплатный архив песенных текстов, аккордов, табулатур и нот


Maroon 5 - Harder To Breath - таба, видео

Регистрация Запомнить меня
Войти через:  Facebook Google Twitter Vk Yandex Mail.ru

Maroon 5 - Harder To Breath - таба, видео

Печатать
Просмотров: 246
Artist - Maroon5
Song - Harder to Breath.
Tabliture by - Nick Olde  n_olde@cogeco.ca>
Rob Pasay  jtull@telusplanet.net>
Brian Flora  brianbf1986@yahoo.com>

 
This is my first tab and it's is my revision of Harder to breath.
The last individual to tab this out got mostly everything right,
but I went over the song a few times with a crappy vocal removal
tool to get some of the hidden stuff within the chorus
and the fact that the verses have muted notes all through them.
They're are hardly noticable, but when you remove the vocals
they're clear as day. Thanks for checking this out, ciao!
                                           
                                            -Nick
 
Intro (same as verses but no mutes (x's))
----------------|----------------|------------
----------------|----------------|------------
----------------|----------------|------------
----------------|----------------|------2h4---
---2h4----2h4---|----2h4----2h4--|0-2h4-------
---------------4|----------------|------------

 
----------------|----------------|------------
----------------|----------------|------------
----------------|----------------|------------
----------------|----------------|------2h4---
---2h4----2h4---|----2h4---x4----|0-2h4-------
---------------4|----------------|------------

 
Verses 
------xxxx---xx-|xx-----xxxx---xx|------------
------xxxx---xx-|xx-----xxxx---xx|------------
------xxxx---xx-|xx-----xxxx---xx|------------
------xxxx---xx-|xx-----xxxx---xx|------2h4---
---2h4xxxx2h4xx-|xx--2h4xxxx2h4xx|0-2h4-------
------xxxx---xx4|xx-----xxxx---xx|------------

 
------xxxx---xx-|xx-----xxxx-----|------------
------xxxx---xx-|xx-----xxxx-----|------------
------xxxx---xx-|xx-----xxxx-----|------------
------xxxx---xx-|xx-----xxxx-----|------------
---2h4xxxx2h4xx-|xx--2h4xxxx-x4--|------------
------xxxx---xx4|xx-----xxxx-----|------------

 
Chorus
C#5 G#5 B5 F#5
----------------|----------------|
----------------|----------------|
6---------------|4---------------|
6---6--6-x-6----|4---4-4-x2h4p2h4|
4---6--6-x-6----|2---4-4-x-------|
----4--4-x-4----|----2-2-x-------|

 
C#5 G#5 B5 F#5
----------------|----------------|
----------------|----------------|
6---------------|4---------------|
6---6--6-x-6----|4---4-4-x2h4p2--|
4---6--6-x-6----|2---4-4-x------4|
----4--4-x-4----|----2-2-x-------|

 
"Is there any one out there...." (This parts like a post chorus.)
C#5 C#5
----------------|----------------|
----------------|----------------|
----6-----------|----6-----------|
----6------12\--|----6-------/12-|
----4-----------|----4-----------|
----------------|----------------|

 
As for the solo, For the life of me I couldnt start to tab it.

     
Добавлено: 05.09.2013
Другие материалы по этой песне:
  • Аккорды и текст

Страница создана 05.09.2013
http://primanota.ru/maroon-5/harder-to-breath-chords.htm
Привет, Гость.
Предлагаем пройти революционный курс по гитаре.
Подарок от PrimaNota.Ru, забирай!