PrimaNota.ru - самый крупный в мире бесплатный архив песенных текстов, аккордов, табулатур и нот


Marmalade Boy - Moment - таба, видео

Регистрация Запомнить меня
Войти через:  Facebook Google Twitter Vk Yandex Mail.ru

Marmalade Boy - Moment - таба, видео

Печатать
Просмотров: 66
-------------------------------------------------------------------------------
                             Moment - Marmalade Boy
-------------------------------------------------------------------------------
Tabbed by: Ginkgo
E-mail: *

Tuning: Standard

e|-----------7--5---------5---7------7--5----------5---7------7---8--------7-----8-------|
B|----5--------------8-----------------------8-------------------------5-----------------|
G|---------------------------------------------------------------------------------------|
D|---------------------------------------------------------------------------------------|
A|---------------------------------------------------------------------------------------|
E|---------------------------------------------------------------------------------------|

e|--5---------------5-----------5--------------5---------7--8----7---5---------------5--7|
B|------8--7---8--------------------8---7---8------------------------------8----7--8-----|
G|---------------------------------------------------------------------------------------|
D|---------------------------------------------------------------------------------------|
A|---------------------------------------------------------------------------------------|
E|---------------------------------------------------------------------------------------|

************************************

| /   slide up
| \   slide down
| h   hammer-on
| p   pull-off
| ~   vibrato
| +   harmonic
| x   Mute note
| b   Bend
| pb  Pre-bend
| br  Bend release
| pbr Pre-bend release
| brb Bend release bend

************************************
Добавлено: 16.08.2015
Другие материалы по этой песне:
  • Аккорды и текст

Страница создана 16.08.2015
http://primanota.ru/marmalade-boy/moment-chords.htm
Привет, Гость.
Предлагаем пройти революционный курс по гитаре.
Подарок от PrimaNota.Ru, забирай!