PrimaNota.ru - самый крупный в мире бесплатный архив песенных текстов, аккордов, табулатур и нот


Marmaduke Duke - Skin The Mofo Alive Live - таба, видео

Регистрация Запомнить меня
Войти через:  Facebook Google Twitter Vk Yandex Mail.ru

Marmaduke Duke - Skin The Mofo Alive Live - таба, видео

Печатать
Просмотров: 113
Band:   Marmaduke Duke
Song:   Skin The Mofo Alive live
Album:  Duke Pandemonium
Tabber: Ruairi Coleman

Ok this is the live version Marmaduke duke played on XFM session broadcast, 17th of february
Have a listen on youtube: http://www.youtube.com/watch?v=z5QasNn8044
Its a great version.

P.s sorry but i have a bad habbit of over complicating tabs lol

Ok i dont know if it help or if its just going to confuse but ive added
^ & v to help indicate up and down stokes. 

 Main Riff Guitar 1 (Intro/verus)

       ^ ^ v v ^   ^ ^  v        v v ^ ^ v v ^ ^ v ^
e|-----0-0-0-0-0---0-0--2h4p2p0----0-0-0---0-0-0-0-0---|
B|---2/4-4-----4/5---------------0-0-----0-0-----0-0---|
G|-------------------------------2-------1-------1-----|
D|-----------------------------------------------------|
A|-----------------------------------------------------|
E|-----------------------------------------------------|

 Guitar 1 plays x2 by itself and then guitar 2 joins

 Second guitar behind the main guitar riff (live)
e|-----------------------|------------------------|
B|--4--4-4--5---5--5-5-x-|---------9---9--9-9-x---|
G|--4--4-4--6---6--6-6-x-|-6--6-6--9---9--9-9-x---|
D|--4--4-4--6---6--6-6-x-|-7--7-7--9---9--9-9-x---|
A|--2--2-2--4---4--4-4-x-|-7--7-7--7---7--7-7-x---|
E|-----------------------|-5--5-5-----------------|

 play x8
__________________________________________________

 Chorus (Second guitar live)
e|---------------------------------------------------------------|
B|---------------------------------------------------------------|
G|---7-x-7-x-x-7\------------------9-x-9-x-x-9\---9-x-9-x-x-9\---|
D|---7-x-7-x-x-7\---7-x-7-x-x-7\---9-x-9-x-x-9\---9-x-9-x-x-9\---|
A|---5-x-5-x-x-5\---7-x-7-x-x-7\---7-x-7-x-x-7\---7-x-7-x-x-7\---| x2
E|------------------5-x-5-x-x-5\---------------------------------|
  "Tie up the winners of the world tonight and skin the..."

__________________________________________________

Intro/Verus x4
__________________________________________________

Chorus x2
(Guitar 1 keeps playing the main riff and Guitar 2 stummin pattarn changes)
__________________________________________________

 Pause - "F#...G___F#" 

 Guitar 1 Mini solo thing
e|-----------7-----------7---|---------------|
B|---5---9-------5---9-9-----|---5---9---5---|
G|---------------------------|---------------|
D|---------------------------|---------------| x2
A|---------------------------|---------------|
E|---------------------------|---------------|
  \__________x3_____________/

 Guitar 2 behind
e|------------------------------|
B|------------------------------|
G|---4---4---6--------------9---|
D|---4---4---6------7---7---9---| x2
A|---2---2---4------7---7---7---|
E|------------------5---5-------|
__________________________________________________

"I some how lose the rebel, and for now well I'm just killin time
But soon I'll be turnin, bridges will burn for you my sweet valentine"

 Guitar 1
e|---12----12----12----12------|
B|------12----12----12----12---|
G|-----------------------------|
D|-----------------------------| x2
A|-----------------------------|
E|-----------------------------|

 Guitar 2
e|-------------------------------|
B|-------------------------------|
G|---4---4---6~-------------9~---|
D|---4---4---6~-----7---7---9~---| x2
A|---2---2---4~-----7---7---7~---|
E|------------------5---5--------|

__________________________________________________

Intro/verus
__________________________________________________

An then the outro

e|-----------7-----------7---|---------------|
B|---5---9-------5---9-9-----|---5---9---5---|
G|---------------------------|---9---9---9---|
D|---------------------------|---------------|
A|---------------------------|---------------|
E|---------------------------|---------------|
  \__________x7_____________/

e|--------|
B|--------|
G|---9~---|
D|---9~---| x4
A|---7~---|
E|--------|
"Tie up the winners of the world..."

Thats pretty much it. Great album really grows on you after
afew listens. Well enjoy, rate and please comment on any improvements =)
Добавлено: 09.07.2012
Вам также может быть интересно:
Другие материалы по этой песне:
  • Аккорды и текст

Страница создана 09.07.2012
http://primanota.ru/marmaduke-duke/skin-the-mofo-alive-live-chords.htm
Привет, Гость.
Предлагаем пройти революционный курс по гитаре.
Подарок от PrimaNota.Ru, забирай!