PrimaNota.ru - самый крупный в мире бесплатный архив песенных текстов, аккордов, табулатур и нот


Marlin, Lene - Where im Headed - аккорды и текст, таба, видео

Регистрация Запомнить меня
Войти через:  Facebook Google Twitter Vk Yandex Mail.ru

Marlin, Lene - Where im Headed - аккорды и текст, таба, видео

Печатать
Просмотров: 132
Where im Headed
Marlin, Lene
"Where I'm headed" by Lene Marlin
>From the album "Playing my game"
Tabbed by Dado2

p = pull off
/ = slide up
x = palm muting

Intro:

| D A | G | (repeat a couple of time, fading in)

   D            A           G
e|------5----------5------|------5------------5------|
B|-2/3-------3--2-------2-|-2/3-------3--2/3-------3-|
 (repeat twice)

Verse (one strum for each chord):

| D A | G Bm | (twice)

   A        D    G         Bm        A        D     G        A
e|-------------|-------3---------2-|-------------|-------3-----------|-------|
B|-2--3x-5x----|---------------3---|-2--3x-5x-3--|-------------------|-----2-|
G|-------------|-0---0-------------|-------------|-0---0-----------2-|---2---|
D|-------------|---0-------4p0-----|-------------|---0-------2---2---|-2-----|
A|-------------|-------------------|-------------|-------------0-----|-------|
E|-------------|-------------------|-------------|-------------------|-------|
                                                                    2/4 measure

Chorus:

| D A | Bm G | x3 first time, x4 second time (repeating intro riff)

Repeat verse, excluding the 2/4 measure, and chorus again.

Bridge:

| G | A | G | Bm A | A (2/4) |

Coda (one step higher):
   E            B           C#m          A
e|------6----------6------|------6------------6------|
B|-3/4-------4--3-------3-|-3/4-------4--3/4-------4-|
 (repeat until fade)

Chords needed:

  D   A   G   Bm  E   B   C#m F#m 
e-2---0---3---2---0---2---4---2----
B-3---2---0---3---0---4---5---2----
G-2---2---0---4---1---4---6---2----
D-0---2---0---4---2---4---6---4----
A-x---0---2---2---2---2---4---4----
E-x---x---3---x---0---x---x---2----

For any comments, questions or threats, to get lyrics or gtm file e-mail me at:
dado2_714@yahoo.it

Tab made with Guitar Tabmaker.
For information see it.geocities.com/dado2_714/
     
Добавлено: 07.08.2013
Другие материалы по этой песне:
  • Аккорды и текст

Страница создана 17.04.2012
http://primanota.ru/marlin-lene/where-im-headed-chords.htm
Привет, Гость.
Предлагаем пройти революционный курс по гитаре.
Подарок от PrimaNota.Ru, забирай!