PrimaNota.ru - самый крупный в мире бесплатный архив песенных текстов, аккордов, табулатур и нот


Marlin, Lene - When You Where Around - таба, видео

Регистрация Запомнить меня
Войти через:  Facebook Google Twitter Vk Yandex Mail.ru

Marlin, Lene - When You Where Around - таба, видео

Печатать
Просмотров: 70
Tuning: Standard
capo: open


I might have missed some notes, but I think this is most of it. Listen to the song for timing.


Intro:

E|---------7--------------------------------------7---------------7----|
B|-----7-----7------------7-11/9-7------------7-----7---7-----7--------|
G|---------------11/8---8----------------------------------------------|
D|-------9-----9------8------------9----9-------9-----9---------9------|
A|---9-------------------------------11-----9---------------9----------|
E|-7--------------------------------------7---------------7------------|

Verse 1:

  I miss those times, I miss those days When you were around, in so many ways

E|---------7-----------------------------------------------------------7---|
B|-----7-----7------------7-11/9-7---7-------7-------7--------7----------7-|
G|---------------11/8---8--------------------------------------------------|
D|-------9-----9------8------------9---9---9---9---9---9---11---11---9-----|
A|---9---------------------------------------------------9---------7-------|
E|-7-------------------------------------7-------4-------------------------|

  And it felt so safe, and I was glad. But now something's changed, that makes me sad

E|---------7---------------------------------------------------------------|
B|-----7-----7------------7-11/9-7---7-------7-------7--------7--------7---|
G|---------------11/8---8--------------------------------------------------|
D|-------9-----9------8------------9---9---9---9---9---9---11---11---9---9-|
A|---9---------------------------------------------------9---------7-------|
E|-7-------------------------------------7-------4-------------------------|

E|7-------7-----7--|
B|--7---7---7------|
G|-----------------|
D|----9-------9----|
A|--------7--------|
E|-----------------|


Chorus:

  And I, was waiting patiently,But you never came I realize it now, 
  won't ever be the same... again Won't ever be the

E|---------------------------------------|
B|------7-------7-------7-------7--------|
G|---------------------------------------|
D|----9---9---9---9---9---9---9---9------|
A|----------7----------------------------|
E|--4---------------7-------6------------| (x3)

  same... again

E|--------------------------7---------------7---------|
B|------7-------7-------7-----7---7-----7-------------|
G|----------------------------------------------------|
D|----9---9---9---9---9---9-----9-----9---9-----------|
A|----------7-----------------------------------------|
E|--4---------------7---------------7-----------------|


Verse 2:

  If you're doing fine, I don't know. You see, I gave up calling long time ago

E|--------7------------------------------------------------------------7---|
B|----7-----7---7-------7-11/9-7------------7-------7---------7------------|
G|----------------8---8----------------------------------------------------|
D|------9-----9-----8------------9----9---9---9---9---9----11---11---9---9-|
A|--9------------------------------11--------------------9---------7-------|
E|7-------------------------------------7-------4--------------------------|


  Haven't heard from you, I guess that means. That I'm no good no more, that's what   it seems

E|---------7---------------------------------------------------------------|
B|-----7-----7---7-------7-11/9-7------------7-------7--------7--------7---|
G|-----------------8---8---------------------------------------------------|
D|-------9-----9-----8------------9----9---9---9---9---9---11---11---9---9-|
A|---9------------------------------11-------------------9---------7-------|
E|-7-------------------------------------7-------4-------------------------|

E|7-------7-----7--|
B|--7---7---7------|
G|-----------------|
D|----9-------9----|
A|--------7--------|
E|-----------------|


Chorus:

  And I, was waiting patiently,But you never came I realize it now, 
  won't ever be the same... again Won't ever be the

E|---------------------------------------|
B|------7-------7-------7-------7--------|
G|---------------------------------------|
D|----9---9---9---9---9---9---9---9------|
A|----------7----------------------------|
E|--4---------------7-------6------------| (x3)

  same... again

E|--------------------------7-------------------------------------7-------|
B|------7-------7-------7-----7---7-------7-11/9-7------------7-----7---7-|
G|----------------------------------8---8---------------------------------|
D|----9---9---9---9---9---9-----9-----8------------9----9---9---9-----9---|
A|----------7----------------------------------------11-------------------|
E|--4---------------7-------------------------------------7---------------|

E|7-----7--|
B|--7------|
G|---------|
D|----9----|
A|---------|
E|7--------|


Verse 3:

  You see, I gave up waiting - for you to care. You're not there, and I wonder if   you... ever were

E|-------------------------------------------------------------------|
B|------7-11/9-7------------7--------12/11-7------------------------7|
G|----8-------------------------------------------11-------11-----4--|
D|--9------------9----9---9---9----9-----------11----9---9----9------|
A|-----------------11---9-------11-----------9---------7-------------|
E|--------------------------------------------------------------4----|

E|------------------------------------------------|
B|-----------------12-------12-------11-------11--|
G|-4-----11-----------11-------11-------11--------|
D|-----9----9---11-------11-------11-------11-----|
A|---7--------9-----------------------------------|
E|------------------------------------------------|


Chorus:

  And I, was waiting patiently,But you never came I realize it now, 
  won't ever be the same... again. Won't ever be the

E|---------------------------------------|
B|------7-------7-------7-------7--------|
G|---------------------------------------|
D|----9---9---9---9---9---9---9---9------|
A|----------7----------------------------|
E|--4---------------7-------6------------| (x3)

  same... again

E|--------------------------7-------|
B|------7-------7-------7-----7---7-|
G|----------------------------------|
D|----9---9---9---9---9---9-----9---|
A|----------7-----------------------|
E|--4---------------7---------------|


  And I, was waiting patiently,But you never came I realize it now, 
  won't ever be the same... again. Won't ever be the

E|---------------------------------------|
B|------7-------7-------7-------7--------|
G|---------------------------------------|
D|----9---9---9---9---9---9---9---9------|
A|----------7----------------------------|
E|--4---------------7-------6------------| (x3)

  same... again

E|--------------------------7-------7-----7--|
B|------7-------7-------7-----7---7---7------|
G|-------------------------------------------|
D|----9---9---9---9---9---9-----9-------9----|
A|----------7--------------------------------|
E|--4---------------7---------------7--------|



Note: 

This is the the way you're supposed to play it if you wanna play all 
the notes the same Lene does but, personally, I prefer to play this 
song with the capo in the 7th fret (it's much easier). There are very 
few notes in the sixth string that you cannot play (since they are over 
the 7th fret) but you can easily substitute them with some other similar 
note you can reach.


Enjoy the song and good luck !!

-Victor.
Добавлено: 07.07.2013
Другие материалы по этой песне:
  • Аккорды и текст

Страница создана 07.07.2013
http://primanota.ru/marlin-lene/when-you-where-around-chords.htm
Привет, Гость.
Предлагаем пройти революционный курс по гитаре.
Подарок от PrimaNota.Ru, забирай!