PrimaNota.ru - самый крупный в мире бесплатный архив песенных текстов, аккордов, табулатур и нот


Marlin, Lene - So i See - текст песни, таба, видео

Регистрация Запомнить меня
Войти через:  Facebook Google Twitter Vk Yandex Mail.ru

Marlin, Lene - So i See - текст песни, таба, видео

Печатать
Просмотров: 127
"G I see" by Lene Marlin
from the album "Playing my game"
Tabbed by Dado2

Here's the tab of one of the best songs of this album. You can even play
it just as chords. I didn't tab all that there was to, because i don't have
such a good ear and not even an electric guitar. I hope you'll be able to
understand it, i know it's pretty ununderstandable; if you have any
difficulties don't hesitate to e-mail me.

Intro:

low_E---5\2- (to start)

     A  E  F#m D
D||:-----------7-7-4-7p4-:|| x3

A E F#m

Verse 1:

  F#m               A         Bm   A   F#m     A          Bm       A
e--------------------------------------2---2---0---0..---------------
B-------------2-3----------------------2---2---2---2..----2/3--2/3-2-
G------2--2----------------------------2---2---2---2..---------------
D----4-----------------7p4-------------4---4---2---2..---------------
A--------------------------------------4---4---0---0..---------------
E--------------------------------------2---2-------------------------
             (louder)                              ^--many strums

  E4              E
e-0---------0-----0---------0-----
B---------------------------------
G---2-2-1-----2-1---2-2-1-----2-1-

Chorus:

     A  E  F#m D
D||:-----------7-7-4-7p4-:|| x3

  A  E  F#m
e---------0-------0-----
B-----------0-------0---
G-------2-----2-2-----0-

Verse 1:

  F#m               A             Bm   A   F#m     A          Bm       A
e------------------------------------------2---2---0---0..---------------
B------------------------------------------2---2---2---2..----2/3--2/3-2-
G-------------------------6----------------2---2---2---2..---------------
D----7\4--4---7\2-----------7-7p2----------4---4---2---2..---------------
A---------------------9-9------------------4---4---0---0..---------------
E------------------------------------------2---2-------------------------
                                                       ^--many strums
  E4              E
e-0---------0-----0---------0-----
B---------------------------------
G---2-2-1-----2-1---2-2-1-----2-1-

Repeat chorus.

Piano solo:

   Piano:
B|-2-0-2-0-2-3-2--2-0-2-0-2--3-2--2-0-5-3-2-0-2-----|
 | Guitar:                                          | x2
B|------------------------2p3-------------------7p4-|

Bridge:

  F#m     A          Bm       A  E4              E
e-2---2---0---0..----------------0---------0-----0---------0-----
B-2---2---2---2..----2/3--2/3-2----------------------------------
G-2---2---2---2..------------------2-2-1-----2-1---2-2-1-----2-1-
D-4---4---2---2..------------------------------------------------
A-4---4---0---0..------------------------------------------------
E-2---2----------------------------------------------------------
              ^--many strums

Repeat chorus twice.

Chords needed:

  A     E     E4    F#    D
e-0-----0-----0-----2-----2-
B-2-----0-----0-----2-----3-
G-2-----1-----2-----2-----2-
D-2-----2-----2-----4-----0-
A-0-----2-----2-----4----(0)
E(0)----0-----0-----2-----x-

For any comments, questions or threats e-mail me at:
dado2_714@yahoo.it
     
Добавлено: 29.08.2013
Другие материалы по этой песне:
  • Аккорды и текст

Страница создана 27.07.2012
http://primanota.ru/marlin-lene/so-i-see-chords.htm
Привет, Гость.
Предлагаем пройти революционный курс по гитаре.
Подарок от PrimaNota.Ru, забирай!