PrimaNota.ru - самый крупный в мире бесплатный архив песенных текстов, аккордов, табулатур и нот


Marlin, Lene - One Year Ago - текст песни, таба, видео

Регистрация Запомнить меня
Войти через:  Facebook Google Twitter Vk Yandex Mail.ru

Marlin, Lene - One Year Ago - текст песни, таба, видео

Печатать
Просмотров: 127
Уроки эстрадного вокала в Санкт-Петербурге
"One year ago" by Lene Marlin
>From the album "Playing my game"
Tabbed by Dado2

Guitar 1 in the first and second verse plays for each chord only the G and D
strings. Look at the intro as an example.

                Am             F
e------------|---------------------------------|
B-1----------|*-------------------------------*|
G-------2----|*-2-2-x-2--x-2-2-2-2-x-2--x-2-2-*|
D------------|--2-2-x-2--x-2-2-3-3-x-3--x-3-3--|
A------------|---------------------------------|
E------------|---------------------------------|
  (piano part)  guitar starts here (repeat measure x2)

Verse 1:

| C | F | Am | F | C | F |
| Am | F G | Dm | F G | C | C |

Verse 2:

  C          F            Am         F            C          F            
e--------8------------8----------8------------8----------8------------8-
B------8-----------10---------10-----------10----------8-----------10---
G----9----------10----------9-----------10-----------9----------10------
D-10---------10-----------7----------10-----------10---------10---------

  Am         F       G   Dm              F       G   F       G   Dm         
e--------8-------8-8--------------8----------8-8---------8-8--------------8-
B-----10-------6-----6---------10---10-----6-----8-----6-----8---------10---
G---9--------7--------------10-----------7-----------7--------------10------
D-7----------------------10--------------------------------------10---------
                                         "All she needs is..."

  F       G   Am
e-----8-8------------8----------8-
B---6-----8-------10---------10---
G-7-------------9----------9------
D-------------7----------7--------

Chorus:

e----------8----------8-
B-------10----------8---
G----10-----------9-----
D-10-----------10-------

| F | C |   (first time)
| F | C G | (second and third time)

  F
e----------8------------------8-
B-------10----10-----------10---
G----10----------10-----10------
D-10----------------10----------

Verse 3:

| C | F | Am | F | C | F |
| Am | F G | Dm | F G | F G | Dm | F G | Am |

Repeat chorus.

Bridge:

  Am    F     C G   Am    F     Am7
e-----------------------------------
B-5/-/-/13----8--\5-5/-/-/13----8---

Repeat intro and verse 2 (excluding the part from "All she needs is..." on)
Repeat chorus twice and bridge until fade.

Chords needed:

  Am  F   C   G   Dm  Am7 
e-0---1---0---3---1---3----
B-1---1---1---0---3---1----
G-2---2---0---0---2---2----
D-2---3---2---0---0---2----
A-0---3---3---2---x---0----
E-x---1---x---3---x---x----

For any comments, questions or threats e-mail me at:
dado2_714@yahoo.it

Tab made with Guitar Tabmaker.
For information see it.geocities.com/dado2_714/

     
Добавлено: 07.11.2013
Другие материалы по этой песне:
  • Аккорды и текст

Страница создана 09.03.2012
http://primanota.ru/marlin-lene/one-year-ago-chords.htm
Привет, Гость.
Предлагаем пройти революционный курс по гитаре.
Подарок от PrimaNota.Ru, забирай!