PrimaNota.ru - самый крупный в мире бесплатный архив песенных текстов, аккордов, табулатур и нот


Marlene Kuntz - Fingendo La Poesia - аккорды и текст, видео

Регистрация Запомнить меня
Войти через:  Facebook Google Twitter Vk Yandex Mail.ru

Marlene Kuntz - Fingendo La Poesia - аккорды и текст, видео

Печатать
Просмотров: 82
Fingendo La Poesia
Marlene Kuntz
		   titolo:FINGENDO LA POESIA
artista:MARLENE KUNTZ
album:SENZA POESIA (2003) / FINGENDO LA POESIA (singolo 2004)

a cura di Alberto Giordano


intro: (x6) suonando sotto RE

--------------------
----------7---------
--------------------
------7-------------
-5-5----------------
--------------------


D			(Sol)
Una carezza si corica
D				(Sol)
sulle creste agitate dell'oceano:
D				(Sol)
stelline d'oro si accendono
D					(Sol)
e pare il chiasso di una galassia magica.

D
Franta e rifratta si aduna in una corsia
la luce che il sole disegna andando via.

-----------------------------------------------------
-----------------------------------------------------
----------------------------------------------------
-16-16-19-17-16-17-16-17----------------------------
-------------------------17-17--14-17-17-14---------
--------------------------------------------17------

D				(Sol)
Stanno due palme dove termina
D				(Sol)
quella striscia di perline che galleggiano:
D				(Sol)
fronde fuori fuoco gialleggiano
D				(Sol)
come fuse nell'oro che le illumina.

D
Anche un gabbiano che passa per quella via
D
per un istante si indora con la sua scia.

Am		Sol
Ti prego, taci. Volgi gli occhi fin là
Bb   		D
e resta con me a guardare.
Bm
Preferisco così
Sol
e non mi chiedere
Bb		D
a cosa penso: è inutile.
Bm		  Bb		D
Preferisco così, ti prego, non insistere.

--------------------------------------------------------
--------------------------------------------------------
-------------------------------------------------------
-16-16-19-17-16-17-16-17--------------------------5-6-5
-------------------------17-17--14-17-17-14------------
--------------------------------------------17---------

D			(Sol)
Una carezza si corica
D				(Sol)
sul mio viso che interpone il suo velo,
D					(Sol)
sperdo lo sguardo in fondo al cielo
D				(Sol)
e ti resta una faccia fotogenica.

D				(Sol)
Se solo fosse stato ieri, sai
D				(Sol)
nel metallo prezioso eri un'effige
D				(Sol)
ma oggi - la mia maschera non dice -
D				(Sol)
lì ti fondi e per me non tornerai.

D
Guardo nel sole che fugge e mi porta via,
D
guardo nel sole fingendo la poesia.


Am		Sol
Ti prego, taci. Volgi gli occhi fin là
Bb   		D
e resta con me a guardare.
Bm
Preferisco così
Sol
e non mi chiedere
Bb		D
a cosa penso: è inutile.
Bm		  Bb		D
Preferisco così, ti prego, non insistere.


D     
Добавлено: 22.07.2013
Другие материалы по этой песне:
  • Аккорды и текст

Страница создана 22.07.2013
http://primanota.ru/marlene-kuntz/fingendo-la-poesia-chords.htm
Привет, Гость.
Предлагаем пройти революционный курс по гитаре.
Подарок от PrimaNota.Ru, забирай!