PrimaNota.ru - самый крупный в мире бесплатный архив песенных текстов, аккордов, табулатур и нот


Mark Wills - Nothin' But A Suntan - текст песни, таба, видео

Регистрация Запомнить меня
Войти через:  Facebook Google Twitter Vk Yandex Mail.ru

Mark Wills - Nothin' But A Suntan - текст песни, таба, видео

Печатать
Просмотров: 101
Tabbed by: Josh Daley

Tuning: E A D G B E (Standard)



Intro:

------3-------3------3---3^5-3-|
--5-------5------3-----3-------|
----5---5----------4-----------|
-------------------------------|
-------------------------------|
-------------------------------|

--1---3---1---3--1---3-1-0---3--|
----1---1--(1)-----1------(1)---|
--------------------------------|
--------------------------------|
--------------------------------|
--------------------------------|



Verse: (Single strums)

--0----3----1----1----|
--1----3----1----1----|
--0----0----2----2----|
--2----0----3----3----|
--3----2----3----3----|
-------3----1----1----|



Pre-chorus:

--0--3---0---3-0--3--0--3--|
--1----1--(1)--1-----1-----|
--2------------0-----0-----|
--2------------2-----x-----|
--0------------3-----2-----|
---------------------------|



Chorus:

--0----3----1-----0--0--|
--1----3----1-----1--1--|
--0----0----2-----0--0--| x2
--2----0----3-----2--x--|
--3----2----3-----3--2--|
-------3----1-----------|



Solo:

----------------------------------------------------------------|
----------------------------------------------5-----------------|
--12^14-12-9b10--5/7^9-7~~-12^14--12-10-9-5/7---9^7\5-5-7-7-5^7-|
----------------------------------------------------------5-5---|
----------------------------------------------------------------|
----------------------------------------------------------------|

-------------------------------------------------------|
---------------------------------------------3/5/8-8~~-|
--10^12/14~12~-7^9^5^7--12^14~12~-7^9^5^7--5-----------|
-------------------------------------------------------|
-------------------------------------------------------|
-------------------------------------------------------|

--------------------------5-3~~12-10--10/12-13-12\10\8--|
------------------5-8-5-3-------------------------------|
--7^9^5^7-7^5-5/7---------------------------------------|
--------------------------------------------------------|
--------------------------------------------------------|
--------------------------------------------------------|



Turnaround chorus:

--0----3----1-----0--0--|
--1----3----1-----1--1--|
--0----0----2-----0--0--|
--2----0----3-----2--x--|
--3----2----3-----3--2--|
-------3----1-----------|

--0----3----1-----0--0--|
--1----3----1-----1--1--|
--0----0----3-----0--0--| ~Play original chorus until end~
--2----0----3-----2--x--|
--3----2----1-----3--2--|
-------3----------------|
Добавлено: 29.10.2013
Другие материалы по этой песне:
  • Аккорды и текст

Страница создана 10.04.2012
http://primanota.ru/mark-wills/nothin-but-a-suntan-chords.htm
Привет, Гость.
Предлагаем пройти революционный курс по гитаре.
Подарок от PrimaNota.Ru, забирай!