PrimaNota.ru - самый крупный в мире бесплатный архив песенных текстов, аккордов, табулатур и нот


Mark Tremonti - Cauterize - таба, видео

Регистрация Запомнить меня
Войти через:  Facebook Google Twitter Vk Yandex Mail.ru

Mark Tremonti - Cauterize - таба, видео

Печатать
Просмотров: 208
Уроки эстрадного вокала в Санкт-Петербурге
Авторы музыки: Mark Tremonti
Авторы текста: Mark Tremonti
-------------------------------------------------------------------------------
                             Cauterize - Tremonti
-------------------------------------------------------------------------------
Tabbed by:Ferdos Shahidi
E-mail:ferdosshahidi@gmail.com
If you wanna learn this tab better checkout My cover video:
https://www.youtube.com/watch?v=GvtCZnoLefc

Tuning:Drop C#

Intro:
D#|-----------|  ------------------------------| -----------|  --------------------------------|
A#|-----------|  ------------------------------| -----------|  --------------------------------|
F#|-----------|  -------3----------------------| -----------|  -------3------------------------|
C#|-----------|x4-------3--1-------4-1-------1-| -----------|x4 ------3--1-------4-1-------1---|
G#|-----------|  -------1--1-------4-1-------1-| -----------|  -------1--1-------4-1-------1---|
C#|-0-0-0-0-0-|  -0-0-0----1-0-0-0-4-1-0-0-0-1-| -5-5-5-5-5-|  -0-0-0----1-0-0-0-4-1-0-0-0-1---|
                                                  * * * * *
D#|-----------|  ------------------------------| -----------|  --------------------------------|
A#|-----------|  ------------------------------| -----------|  --------------------------------|
F#|-----------|  -------3----------------------| -----------|  -------3------------------------|
C#|-----------|x4-------3--1-------4-1-------1-| -----------|x4 ------3--1-------4-1-------1---|
G#|-----------|  -------1--1-------4-1-------1-| -----------|  -------1--1-------4-1-------1---|
C#|-3-3-3-3-3-|  -0-0-0----1-0-0-0-4-1-0-0-0-1-| -9-9-9-9-9-|  -0-0-0----1-0-0-0-4-1-0-0-0-1---|
    * * * * *                                     * * * * *

Verse:
D#|-----------------------------------------------------------------------------------------|
A#|-----------------------------------------------------------------------------------------|
F#|-9---10-10-10-10-10-10-9---9--9--9--9--9--10-9---9--9--9--9--9--9--9---9--9--9--9--9--9--|
C#|-0---0--0--0--0--0--0--0---0--0--0--0--0--0--0---0--0--0--0--0--0--0---0--0--0--0--0--0--|
G#|-X---X--X--X--X--X--X--X---X--X--X--X--X--X--X---X--X--X--X--X--X--X---X--X--X--X--X--X--|
C#|-10--10-10-10-10-10-10-10--10-10-10-10-10-10-10--10-10-10-10-10-10-10--10-10-10-10-10-10-|

D#|-----------------------------------------------------------------------------------------|
A#|-----------------------------------------------------------------------------------------|
F#|-7--7-7-7-7-7-7-10-10-10-10-9-9-9-9-7-7-7---7--7--7--7--7--7--7---7--7--7--7--7--7-------|
C#|-0--0-0-0-0-0-0-0--0--0--0--0-0-0-0-0-0-10--10-10-10-10-10-10-10--10-10-10-10-10-10------|
G#|-X--X-X-X-X-X-X-X--X--X--X--X-X-X-X-X-X-X---X--X--X--X--X--X--X---X--X--X--X--X--X-------|
C#|-8--8-8-8-8-8-8-8--8--8--8--8-8-8-8-8-8-8---8--8--8--8--8--8--8---8--8--8--8--8--8-------|

D#|---------------------------------------------------------------------------|
A#|---------------------------------------------------------------------------|
F#|-10-9--9-9-9-9-9-9--------9-9-9-9-7--9-9-9-9\-14-14-14-14-14-14------------|
C#|-X--X--X-X-X-X-X-X--------X-X-X-X-x--x-x-x-x\-x--x--x--x--x--x-------------|
G#|-8--7--7-7-7-7-7-7--------7-7-7-7-5--7-7-7-7\-12-12-12-12-12-12------------|
C#|-0--0--0-0-0-0-0-0-0--0---0-0-0-0------------------------------------------|

D#|---------------------------------------------------------------------------|
A#|---------------------------------------------------------------------------|
F#|-10-9--9-9-9-9-9-9--------9-9-9-9-9--10-10-10-10\-17-17-17-17-17-17--------|
C#|-X--X--X-X-X-X-X-X--------X-X-X-X-x--x--x--x--x-\-x--x--x--x--x--x---------|
G#|-8--7--7-7-7-7-7-7--------7-7-7-7-7--8--8--8--8-\-15-15-15-15-15-15--------|
C#|-0--0--0-0-0-0-0-0-0--0---0-0-0-0------------------------------------------|

x2

Chorus:
D#|--------------------------------------------------------------------------|
A#|------10--10-10-10--10--10--10-11--11--11-11-11-11------------------------|
F#|-10-9-9---9--9--9---9---9---9--10--10--10-10-10-10------------------------|
C#|-x--x-7---7--7--7---7---7---7--8---8---8--8--8--8-------------------------|
G#|-8--7-7---7--7--7---7---7---7--8---8---8--8--8--8-------------------------|
C#|------7---7--7--7---7---7---7--8---8---8--8--8--8-------------------------|

D#|---------------------------------------------------------------------------|
A#|-6--6-6-6-6--6-6-6-6-6-6-6-------------------------------------------------|
F#|-5--5-5-5-5--5-5-5-5-5-5-5-------------------------------------------------|
C#|-3--3-3-3-3--3-3-3-3-3-3-3-5--5-5-5-5--5--5-5-5-5-5------------------------|
G#|-3--3-3-3-3--3-3-3-3-3-3-3-3--3-3-3-3--3--3-3-3-3-3------------------------|
C#|-3--3-3-3-3--3-3-3-3-3-3-3-2--2-2-2-2--2--2-2-2-2-2------------------------|

x2

D#|-----------|  ------------------------------| -----------|  --------------------------------|
A#|-----------|  ------------------------------| -----------|  --------------------------------|
F#|-----------|  -------3----------------------| -----------|  -------3------------------------|
C#|-----------|x4-------3--1-------4-1-------1-| -----------|x4 ------3--1-------4-1-------1---|
G#|-----------|  -------1--1-------4-1-------1-| -----------|  -------1--1-------4-1-------1---|
C#|-0-0-0-0-0-|  -0-0-0----1-0-0-0-4-1-0-0-0-1-| -9-9-9-9-9-|  -0-0-0----1-0-0-0-4-1-0-0-0-1---|
                                                  * * * * *
Verse:
D#|-----------------------------------------------------------------------------------------|
A#|-----------------------------------------------------------------------------------------|
F#|-9---10-10-10-10-10-10-9---9--9--9--9--9--10-9---9--9--9--9--9--9--9---9--9--9--9--9--9--|
C#|-0---0--0--0--0--0--0--0---0--0--0--0--0--0--0---0--0--0--0--0--0--0---0--0--0--0--0--0--|
G#|-X---X--X--X--X--X--X--X---X--X--X--X--X--X--X---X--X--X--X--X--X--X---X--X--X--X--X--X--|
C#|-10--10-10-10-10-10-10-10--10-10-10-10-10-10-10--10-10-10-10-10-10-10--10-10-10-10-10-10-|

D#|-----------------------------------------------------------------------------------------|
A#|-----------------------------------------------------------------------------------------|
F#|-7--7-7-7-7-7-7-10-10-10-10-9-9-9-9-7-7-7---7--7--7--7--7--7--7---7--7--7--7--7--7-------|
C#|-0--0-0-0-0-0-0-0--0--0--0--0-0-0-0-0-0-10--10-10-10-10-10-10-10--10-10-10-10-10-10------|
G#|-X--X-X-X-X-X-X-X--X--X--X--X-X-X-X-X-X-X---X--X--X--X--X--X--X---X--X--X--X--X--X-------|
C#|-8--8-8-8-8-8-8-8--8--8--8--8-8-8-8-8-8-8---8--8--8--8--8--8--8---8--8--8--8--8--8-------|


D#|---------------------------------------------------------------------------|
A#|---------------------------------------------------------------------------|
F#|-10-9--9-9-9-9-9-9--------9-9-9-9-7--9-9-9-9\-14-14-14-14-14-14------------|
C#|-X--X--X-X-X-X-X-X--------X-X-X-X-x--x-x-x-x\-x--x--x--x--x--x-------------|
G#|-8--7--7-7-7-7-7-7--------7-7-7-7-5--7-7-7-7\-12-12-12-12-12-12------------|
C#|-0--0--0-0-0-0-0-0-0--0---0-0-0-0------------------------------------------|

D#|---------------------------------------------------------------------------|
A#|---------------------------------------------------------------------------|
F#|-10-9--9-9-9-9-9-9--------9-9-9-9-9--10-10-10-10\-17-17-17-17-17-17--------|
C#|-X--X--X-X-X-X-X-X--------X-X-X-X-x--x--x--x--x-\-x--x--x--x--x--x---------|
G#|-8--7--7-7-7-7-7-7--------7-7-7-7-7--8--8--8--8-\-15-15-15-15-15-15--------|
C#|-0--0--0-0-0-0-0-0-0--0---0-0-0-0------------------------------------------|

Chorus:
D#|--------------------------------------------------------------------------|
A#|------10--10-10-10--10--10--10-11--11--11-11-11-11------------------------|
F#|-10-9-9---9--9--9---9---9---9--10--10--10-10-10-10------------------------|
C#|-x--x-7---7--7--7---7---7---7--8---8---8--8--8--8-------------------------|
G#|-8--7-7---7--7--7---7---7---7--8---8---8--8--8--8-------------------------|
C#|------7---7--7--7---7---7---7--8---8---8--8--8--8-------------------------|

D#|---------------------------------------------------------------------------|
A#|-6--6-6-6-6--6-6-6-6-6-6-6-------------------------------------------------|
F#|-5--5-5-5-5--5-5-5-5-5-5-5-------------------------------------------------|
C#|-3--3-3-3-3--3-3-3-3-3-3-3-5--5-5-5-5--5--5-5-5-5-5------------------------|
G#|-3--3-3-3-3--3-3-3-3-3-3-3-3--3-3-3-3--3--3-3-3-3-3------------------------|
C#|-3--3-3-3-3--3-3-3-3-3-3-3-2--2-2-2-2--2--2-2-2-2-2------------------------|

D#|--------------------------------------------------------------------------|
A#|------10--10-10-10--10--10--10-11--11--11-11-11-11------------------------|
F#|-10-9-9---9--9--9---9---9---9--10--10--10-10-10-10------------------------|
C#|-x--x-7---7--7--7---7---7---7--8---8---8--8--8--8-------------------------|
G#|-8--7-7---7--7--7---7---7---7--8---8---8--8--8--8-------------------------|
C#|------7---7--7--7---7---7---7--8---8---8--8--8--8-------------------------|

D#|---------------------------------------------------------------------------|
A#|-6--6-6-6-6--6-6-6-6-6-6-6-------------------------------------------------|
F#|-5--5-5-5-5--5-5-5-5-5-5-5-------------------------------------------------|
C#|-3--3-3-3-3--3-3-3-3-3-3-3-5--5-5--5-5-5-5--5-5-5-5--5-5--5-5-5-5--5-5-5---|
G#|-3--3-3-3-3--3-3-3-3-3-3-3-3--3-3--3-3-3-3--3-3-3-3--3-3--3-3-3-3--3-3-3---|
C#|-3--3-3-3-3--3-3-3-3-3-3-3-2--2-2--2-2-2-2--2-2-2-2--2-2--2-2-2-2--2-2-2---|


Bridge:
D#|-------------------------------------------------------------------------- ----------------------|
A#|--------------------------------------------3-3---3-3--3----3-3---3-3--3-- ----------------------|
F#|--------------------------------------------2-2---2-2--2----2-2---2-2--2-- ----------------------|
C#|---------------------------------5----------0-0---0-0--0----0-0---0-0--0-- ------------------/0--|x2
G#|---5---7---8---7---5-----5---7-------7---8--0-0---0-0--0----0-0---0-0--0--   a slide from up /0--|
C#|-8---8---8---8---8-----8---8---8---8---8----0-0---0-0--0----0-0---0-0--0-- ------------------/0--|

D#|---------------------------------------------------------------------------------------|
A#|-------------------------------------------3--3-3--3-3-3-3--3-3------------------------|
F#|-5--5-5--5-5-5-5--5-5-3--3-3--3-3-3-3--3-3-2--2-2--2-2-2-2--2-2-3--3-3--3-3-3-3--3-3---|
C#|-5--5-5--5-5-5-5--5-5-3--3-3--3-3-3-3--3-3-0--0-0--0-0-0-0--0-0-3--3-3--3-3-3-3--3-3---|x2
G#|-3--3-3--3-3-3-3--3-3-1--1-1--1-1-1-1--1-1-0--0-0--0-0-0-0--0-0-1--1-1--1-1-1-1--1-1---|
C#|-------------------------------------------0--0-0--0-0-0-0--0-0------------------------|

D#|-------------------------------------------------------------------|
A#|-------------------------------------------------------------------|
F#|-5--5-5--5-5-5-5--5-5-3--3-3--3-3-3-3--3-3--3-3--3-3--3-3-3-3--3---|
C#|-5--5-5--5-5-5-5--5-5-3--3-3--3-3-3-3--3-3--3-3--3-3--3-3-3-3--3---|
G#|-3--3-3--3-3-3-3--3-3-1--1-1--1-1-1-1--1-1--1-1--1-1--1-1-1-1--1---|
C#|-------------------------------------------------------------------|

D#|-----------|  ------------------------------| -----------|  --------------------------------|
A#|-----------|  ------------------------------| -----------|  --------------------------------|
F#|-----------|  -------3----------------------| -----------|  -------3------------------------|
C#|-----------|x4-------3--1-------4-1-------1-| -----------|x4 ------3--1-------4-1-------1---|
G#|-----------|  -------1--1-------4-1-------1-| -----------|  -------1--1-------4-1-------1---|
C#|-0-0-0-0-0-|  -0-0-0----1-0-0-0-4-1-0-0-0-1-| -9-9-9-9-9-|  -0-0-0----1-0-0-0-4-1-0-0-0-1---|
                                                  * * * * *
Chorus:
D#|--------------------------------------------------------------------------|
A#|------10--10-10-10--10--10--10-11--11--11-11-11-11------------------------|
F#|-10-9-9---9--9--9---9---9---9--10--10--10-10-10-10------------------------|
C#|-x--x-7---7--7--7---7---7---7--8---8---8--8--8--8-------------------------|
G#|-8--7-7---7--7--7---7---7---7--8---8---8--8--8--8-------------------------|
C#|------7---7--7--7---7---7---7--8---8---8--8--8--8-------------------------|

D#|---------------------------------------------------------------------------|
A#|-6--6-6-6-6--6-6-6-6-6-6-6-------------------------------------------------|
F#|-5--5-5-5-5--5-5-5-5-5-5-5-------------------------------------------------|
C#|-3--3-3-3-3--3-3-3-3-3-3-3-5--5-5-5-5--5--5-5-5-5-5------------------------|
G#|-3--3-3-3-3--3-3-3-3-3-3-3-3--3-3-3-3--3--3-3-3-3-3------------------------|
C#|-3--3-3-3-3--3-3-3-3-3-3-3-2--2-2-2-2--2--2-2-2-2-2------------------------|

D#|--------------------------------------------------------------------------|
A#|------10--10-10-10--10--10--10-11--11--11-11-11-11------------------------|
F#|-10-9-9---9--9--9---9---9---9--10--10--10-10-10-10------------------------|
C#|-x--x-7---7--7--7---7---7---7--8---8---8--8--8--8-------------------------|
G#|-8--7-7---7--7--7---7---7---7--8---8---8--8--8--8-------------------------|
C#|------7---7--7--7---7---7---7--8---8---8--8--8--8-------------------------|

D#|---------------------------------------------------------------------------|
A#|-6--6-6-6-6--6-6-6-6-6-6-6-------------------------------------------------|
F#|-5--5-5-5-5--5-5-5-5-5-5-5-------------------------------------------------|
C#|-3--3-3-3-3--3-3-3-3-3-3-3-5--5-5-5-5--5--5-5-5-5-5------------------------|
G#|-3--3-3-3-3--3-3-3-3-3-3-3-3--3-3-3-3--3--3-3-3-3-3------------------------|
C#|-3--3-3-3-3--3-3-3-3-3-3-3-2--2-2-2-2--2--2-2-2-2-2------------------------|

D#|--------------------------------------------------------------------------|
A#|------10--10-10-10--10--10--10-11--11--11-11-11-11------------------------|
F#|-10-9-9---9--9--9---9---9---9--10--10--10-10-10-10------------------------|
C#|-x--x-7---7--7--7---7---7---7--8---8---8--8--8--8-------------------------|
G#|-8--7-7---7--7--7---7---7---7--8---8---8--8--8--8-------------------------|
C#|------7---7--7--7---7---7---7--8---8---8--8--8--8-------------------------|

D#|---------------------------------------------------------------------------|
A#|-6--6-6-6-6--6-6-6-6-6-6-6-------------------------------------------------|
F#|-5--5-5-5-5--5-5-5-5-5-5-5-------------------------------------------------|
C#|-3--3-3-3-3--3-3-3-3-3-3-3-----------5--5-----------5--5-------------------|
G#|-3--3-3-3-3--3-3-3-3-3-3-3-----------3--3-----------3--3-------------------|
C#|-3--3-3-3-3--3-3-3-3-3-3-3-0-0-0-0-0-2--2-0-0-0-0-0-2--2-------------------|

D#|--------------------------------------------------------------------------|
A#|------10--10-10-10--10--10--10-11--11--11-11-11-11------------------------|
F#|-10-9-9---9--9--9---9---9---9--10--10--10-10-10-10------------------------|
C#|-x--x-7---7--7--7---7---7---7--8---8---8--8--8--8-------------------------|
G#|-8--7-7---7--7--7---7---7---7--8---8---8--8--8--8-------------------------|
C#|------7---7--7--7---7---7---7--8---8---8--8--8--8-------------------------|

D#|---------------------------------------------------------------------------|
A#|-6--6-6-6-6--6-6-6-6-6-6-6-------------------------------------------------|
F#|-5--5-5-5-5--5-5-5-5-5-5-5--------------------------7----------------------|
C#|-3--3-3-3-3--3-3-3-3-3-3-3-5--5-5-5-5--5--5-5-5-5-5-7----------------------|
G#|-3--3-3-3-3--3-3-3-3-3-3-3-3--3-3-3-3--3--3-3-3-3-3-5----------------------|
C#|-3--3-3-3-3--3-3-3-3-3-3-3-2--2-2-2-2--2--2-2-2-2-2------------------------|

Outro:
D#|-------------------------------------------|
A#|-5/6-5-------------------------------------|
F#|-------5---5-7--7---0-2--2--0--4/5--5/7-5--|
C#|-------------------------------------------|
G#|-------------------------------------------|
C#|-0---0-7---7-8--8---3-3--3--3--2---2-------|

D#|-------------------------------------------|
A#|-5/6-5----------------------------------5--|
F#|-------5---5-7--7---0-2--2--0--4/5--5/7----|
C#|-------------------------------------------|
G#|-------------------------------------------|
C#|-0---0-7---7-8--8---3-3--3--3--2---2-------|

D#|--------------------------------------------|
A#|-5/6-5--------------------------------------|
F#|-------5---5-7--7----5-5--5--5--0-----------|
C#|--------------------------------------------|
G#|--------------------------------------------|
C#|-0---0-7---7-8--8----3-3--3--3--2-----------|

D#|--------------------------------------------|
A#|-5/6-5---5--------11------------------------|
F#|-------5---5-7--7----5-5--5--5--0-----------|
C#|--------------------------------------------|
G#|--------------------------------------------|
C#|-0---0-7---7-8--8----3-3--3--3--2-----------|

D#|------------|
A#|-6\5--------|
F#|-----5------|
C#|-------7----|
G#|------------|
C#|-0----------|

************************************

| /   slide up
| \   slide down
| h   hammer-on
| p   pull-off
| ~   vibrato
| +   harmonic
| x   Mute note
| b   Bend
| pb  Pre-bend
| br  Bend release
| pbr Pre-bend release
| brb Bend release bend

************************************
Добавлено: 02.10.2015
Другие материалы по этой песне:

Страница создана 02.10.2015
http://primanota.ru/mark-tremonti/cauterize-chords.htm
Привет, Гость.
Предлагаем пройти революционный курс по гитаре.
Подарок от PrimaNota.Ru, забирай!