PrimaNota.ru - самый крупный в мире бесплатный архив песенных текстов, аккордов, табулатур и нот


Mark Ronson - Uptown Funk 5 String - бас-таба, видео

Регистрация Запомнить меня
Войти через:  Facebook Google Twitter Vk Yandex Mail.ru

Mark Ronson - Uptown Funk 5 String - бас-таба, видео

Печатать
Просмотров: 272
Mark Ronson Ft Bruno Mars - Uptown Funk

I have submitted a 4 string version as well

There is also a link to this tab being played at the end

1st slide

G|----------|
D|----------|
A|----------|
E|----------|
B|-3/15-15--|


Slide in with this...

G|--------|
D|--------|
A|--------|
E|--------|
B|-3/8\3--|


Main Riff

G|---------------------------|
D|---------------------------|
A|---------------------------|
E|-------1h3-1---1h3-1-------|
B|-3\--3-------3-------1-3\--|

Last riff

G|---------------------------|
D|---------------------------|
A|---------------------------|
E|---------1h3-1-------------|
B|-3\-----3-------3-1-2--3\--|

Pre-Chorus ('cos uptown funk gon' give it to ya...)

G|----------------------------------------------|
D|----------------------------------------------|
A|----------------------------------------------|
E|----------------------------------------------|
B|--3--4--5--6--7--8--9--10--11--12--13--14-15--|


Chours

Slide in with

G|-----------|
D|-----------|
A|-----------|
E|----17-----|
B|-3/---15\--|


G|---------------------------|--------------------------------|
D|---------------------------|------5-------------------------|
A|---------------------------|----------------5-5-5-5-5-5-----|
E|-------1h3-1---1h3-1-------|----3---1---1/------------------|
B|-3\--3-------3-------1-3\--|--3-------3------------------3\-|


                               S   S P P
G|---------------------------|-------------------------------------------|
D|---------------------------|-------------------------------------------|
A|---------------------------|-------3-0H3/5--------------5-5-5-5-5-5----|
E|-------1h3-1---1h3-1-------|-3h5-x-----------1h3-1---1/----------------|
B|-----3-------3-------1-3\--|---------------3-------3-------------------|

G|----------------------|----------------|
D|--/12-12-12-12-12-12--|----------------|
A|----------------------|--/5-5-5-5-5-5--|
E|----------------------|----------------|
B|----------------------|----------------|


G|----------------------|---------------------|
D|--/12-12-12-12-12-12--|---------------------|
A|----------------------|---------------------|
E|----------------------|---------------------|
B|----------------------|--3/(12)-3/15\8\-3\--|


2nd Verse

G|---------|
D|---------|
A|---------|
E|---------|
B|-3/15\3--|

                             P P
G|----------------------------------------------------------|
D|----------------------------------------------------------|
A|---------------------------3-5----------------------------|
E|-------1h3-1---1h3-1-----------------1h3-1---1h3-1--------|
B|-3\--3-------3-------1-3\----------3-------3-------1-3\---|

                             P
G|---------------------------5h7----------------------------|
D|----------------------------------------------------------|
A|----------------------------------------------------------|
E|-------1h3-1---1h3-------------------1h3-1----------------|
B|-----3-------3-------1-3\----------3-------3-1-2--3\------|


Play Pre-Chorus & Chorus then main riff


        v REPEAT v
G|--------------------------|
D|--------------------------|
A|--------------------------|
E|-------1h3-1---1h3-1------|
B|-3\--3-------3-------1-3\-|


G|-----------------------|----------------------------------------|----------------------|
D|-----------------------|----10----------------------------------|----------------------|
A|-----------------------|----------------------------------------|----------------------|
E|-----1h3-1---1h3-1-----|-5x---x-8h10-------1h3-1---1h3-1--------|-----1h3-1------------|
B|--3-------3-------1-3\-|----------------3-------3-------1-3\----|--3-------3-1-2--3\---|


G|---------------------------|------------------------5-7-|---------------------|
D|---------------------------|----------------------------|---------------------|
A|---------------------------|----------------------------|---------------------|
E|-------1h3-1---1h3---------|-----1h3-1---1h3------------|----1h3-1---1h3------|
B|-----3-------3-------1-3\--|---3-------3-------1-3\-----|--3-------3-----1-3--|


G|-------------------|--------------7-5-------3----------|
D|-------------------|-------------------3--3---3--------|
A|-------------------|-------3-5------------------0-5-5--|
E|---1h3-1---1h3-----|-1-3-4-----------------------------|
B|-3-------3-----1-3-|-----------------------------------|


Play Chorus

Outro Uptown Funk you Up

                            P S S
G|---------------------------------------------------------------------------|
D|--------------------------x-----------------------3------------------------|
A|----------------------------3-3h5-------------3-5---5----------------------|
E|-------1h3-1---1h3-1----------------1h3-1---5------------------------------|
B|-3\--3-------3-------1-3\---------3-------3--------------------------------|

G|-------------------------------------7-5-4---------------------------------|
D|-------------------------------------------7---5-7-------------------------|
A|------------------------5-7-----3-5----------8-----8-----------------------|
E|-------1h3-1---1h3-1--------3-5--------------------------------------------|
B|-3\--3-------3-------1-3-5-------------------------------------------------|

                                     P S S
G|----5h7-5------------------------------------------------------------------|
D|-----------------------------------x--------5/12-12-12-12-------12-15-12---|
A|-------------------------------------3-3h5----------------12-15------------|
E|----------(3)---1h3-1---1h3-1----------------------------------------------|
B|-3\-----------3-------3-------1-3\-----------------------------------------|

       S P S S   S P
G|---------------------------------------------------------------------------------|
D|-------X---------X----------------------------------12-12-12-12-12-12-12-12\-----|
A|---------3-3h5--------------------------------3-5/-------------------------------|
E|-----X---------X------1h3-1---1h3-1-----1-3-5------------------------------------|
B|-3\-----------------3-------3-------1-3---------------------------------------3--|

END


Great Song to play!

I have a video using this tab here...

https://www.youtube.com/watch?v=sF3yBrDRh-I


Would also be grateful if you could join me on facebook and let me know
how you get on with this tab...

https://www.facebook.com/HarryHopkinsonBass


Have Fun!
Добавлено: 21.04.2015
Другие материалы по этой песне:
  • Аккорды и текст

Страница создана 21.04.2015
http://primanota.ru/mark-ronson/uptown-funk-5-string-chords.htm
Привет, Гость.
Предлагаем пройти революционный курс по гитаре.
Подарок от PrimaNota.Ru, забирай!