PrimaNota.ru - самый крупный в мире бесплатный архив песенных текстов, аккордов, табулатур и нот


Mark Ronson - Uptown Funk 4 String - бас-таба, видео

Регистрация Запомнить меня
Войти через:  Facebook Google Twitter Vk Yandex Mail.ru

Mark Ronson - Uptown Funk 4 String - бас-таба, видео

Печатать
Просмотров: 384
Mark Ronson Ft Bruno Mars - Uptown Funk

Was Originally going to upload this in Drop B tuning and Standard tuning, However it 
doesn't sound great at all
in standard tuning!

I have also have submitted a 5 string version.

DROP TUNING - BADG


G|----------|
D|----------|
A|----------|
B|-3/15-15--|


G|--------|
D|--------|
A|--------|
B|-3/8\3--|


Main Riff

G|----------------------------|
D|----------------------------|
A|----------------------------|
B|-3\--3-6h8-6--3-6h8-6-1-3\--|


Last riff

G|---------------------------|
D|---------------------------|
A|---------------------------|
B|-3\----3-6h8-6--3-1-2--3\--|

Pre - Chorus ('cos uptown funk gon' give it to ya...)

G|----------------------------------------------|
D|----------------------------------------------|
A|----------------------------------------------|
B|--3--4--5--6--7--8--9--10--11--12--13--14-15--|

CHORUS

Slide in with

G|-----------|
D|-----7-----|
A|------5\---|
B|-3/--------|


G|---------------------------|--------------------------------|
D|---------------------------|------5-------------------------|
A|---------------------------|----------------5-5-5-5-5-5-----|
B|-3\--3-6h8-6-3-6h8-6-1-3\--|--3-8---6-3-6/--------------3\--|


                               S    S P P
G|---------------------------|------------------------------------------|
D|---------------------------|------------------------------------------|
A|---------------------------|--------3-0H3/5--------------5-5-5-5-5-5--|
B|-----3-6h8-6-3-6h8-6-1-3\--|-8h10-x---------3-6h8-6-3-6/--------------|


G|----------------------|----------------|
D|--/12-12-12-12-12-12--|----------------|
A|----------------------|--/5-5-5-5-5-5--|
B|----------------------|----------------|


G|----------------------|---------------------|
D|--/12-12-12-12-12-12--|---------------------|
A|----------------------|---------------------|
B|----------------------|--3/(12)-3/(12)\3\---|


2nd Verse

G|---------|
D|---------|
A|---------|
B|-3/15\3--|

                             P P
G|----------------------------------------------------------|
D|----------------------------------------------------------|
A|---------------------------3-5----------------------------|
B|-3\--3-6h8-6-3-6h8-6-1-3\----------3-6h8-6-3-6h8-6-1-3\---|


                             P
G|---------------------------5h7----------------------------|
D|----------------------------------------------------------|
A|----------------------------------------------------------|
B|-----3-6h8-6-3-6h8---1-3\----------3-6h8-6-3-1-2--3\------|


Play Pre - Chorus & Chorus then main riff


Eventually the bass starts to play fills in between the main riffs like so....


        v REPEAT v
G|--------------------------|
D|--------------------------|
A|--------------------------|
B|-3\--3-6h8-6-3-6h8-6-1-3\-|


G|-------------------------|---------------------------------------------|
D|-------------------------|------10-------------------------------------|
A|-------------------------|---------------------------------------------|
B|--3--6h8-6-3--6h8-6-1-3\-|-10/x----x-12h14---3--6h8-6-3--6h8-6-1-3\----|


G|-----------------------|
D|-----------------------|
A|-----------------------|
B|--3--6h8-6-3-1-2--3\---|


G|---------------------------|------------------------5-7-|---------------------|
D|---------------------------|----------------------------|---------------------|
A|---------------------------|----------------------------|---------------------|
B|-----3-6h8-6-3-6h8---1-3\--|---3-6h8-6-3-6h8---1-3\-----|--3-6h8-6-3-6h8-1-3--|


G|-------------------|--------------7-5-------3----------|
D|-------------------|-------------------3--3---3--------|
A|-------------------|-----0-3-5------------------0-5-5--|
B|-3-6h8-6-3-6h8-1-3-|-6-8-------------------------------|


Play Chorus

Outro Uptown Funk you Up

                            P S S
G|---------------------------------------------------------------------------|
D|--------------------------x-----------------------3------------------------|
A|----------------------------3-3h5-----------0-3-5---5----------------------|
B|-3\--3-6h8-6-3-6h8-6-1-3\---------3-6h8-6-3--------------------------------|

G|-------------------------------------7-5-4---------------------------------|
D|-------------------------------------------7---5-7-------------------------|
A|------------------------5-7---0-3-5----------8-----8-----------------------|
B|-3\--3-6h8-6-3-6h8-6-1-3-5--8----------------------------------------------|

                                     P S S
G|----5h7-5------------------------------------------------------------------|
D|-----------------------------------x--------5/12-12-12-12-------12-15-12---|
A|-------------------------------------3-3h5----------------12-15------------|
B|-3\-------(8)-3-6h8-6-3-6h8-6-1-3\-----------------------------------------|

       S P S S   S P
G|---------------------------------------------------------------------------------|
D|-------X---------X----------------------------------12-12-12-12-12-12-12-12\-----|
A|---------3-3h5------------------------------0-3-5/-------------------------------|
B|-3\--x---------x----3-6h8-6-3-6h8-6-1-3-6-8-----------------------------------3\-|


END


Great Song to play!

I have a video using this tab here...

https://www.youtube.com/watch?v=sF3yBrDRh-I


Would also be grateful if you could join me on facebook and let me know how you get on 
with this tab...

https://www.facebook.com/HarryHopkinsonBass


Have Fun!
Добавлено: 21.04.2015
Другие материалы по этой песне:
  • Аккорды и текст

Страница создана 21.04.2015
http://primanota.ru/mark-ronson/uptown-funk-4-string-chords.htm
Привет, Гость.
Предлагаем пройти революционный курс по гитаре.
Подарок от PrimaNota.Ru, забирай!