PrimaNota.ru - самый крупный в мире бесплатный архив песенных текстов, аккордов, табулатур и нот


Mark Ronson - Leaving Los Feliz - таба, видео

Регистрация Запомнить меня
Войти через:  Facebook Google Twitter Vk Yandex Mail.ru

Mark Ronson - Leaving Los Feliz - таба, видео

Печатать
Просмотров: 65
Mark Ronson
'Leaving Los Feliz featuring Kevin Parker'
'Uptown Special' (2015)

INTRO PART 1:

(Guitar 1)

e|--5---------3-------3--|
B|--5----7----3----5--3--|
G|--6----7----4----5--4--|
D|--7----7----5----5--5--| x2
A|--7----5----5----3--5--|
E|--5---------3-------3--|

(Guitar 2)

e|-----------------------------------------|
B|-----------------------------------------|
G|-----------------------------------------|
D|---------------------7-------------------| x2
A|----------7--5--7/9-------------5--3-----|
E|--5--7/9----------------3--5/7--------3--|

INTRO PART 2:

(Guitar 1)

e|--5-5-----------3-3-------3--|
B|--5-5----7-7----3-3----5--3--|
G|--6-6----7-7----4-4----5--4--|
D|--7-7----7-7----5-5----5--5--| x3
A|--7-7----5-5----5-5----3--5--|
E|--5-5-----------3-3-------3--|


(Guitar 2)

e|--------------------------------------------------------------------|
B|-------------10b12r10-------------------------------------10b12r10--|
G|-----6/7--9------------------6/7--9--7b9r7--------6/7--9------------|
D|--7-----------------------7--------------------7--------------------|
A|--------------------------------------------------------------------|
E|--------------------------------------------------------------------|



FILL BEFORE VERSE:

(Guitar 1)

e|--1----0--|
B|--1----0--|
G|--2----1--| x1
D|--3----2--|
A|--3----2--|
E|--1----0--|

(Guitar 2)

e|-------------------------0-0----2-2----4-4--|
B|-------------------------0-0----2-2----3-3--|
G|--7/9--9--9--9--9\7----0h1-1--1/2-2--2/4-4--|
D|--------------------------------------------|
A|--------------------------------------------|
E|--------------------------------------------|

VERSE 1:

(Guitar 1)

e|--5-5-----------3-3-------3--|
B|--5-5----7-7----3-3----5--3--|
G|--6-6----7-7----4-4----5--4--|
D|--7-7----7-7----5-5----5--5--| x3
A|--7-7----5-5----5-5----3--5--|
E|--5-5-----------3-3-------3--|

(Guitar 2)
(0:48)

e|---------------------|
B|---------------------|
G|---------------------|
D|---------------------|
A|--7v-----------7\0---|
E|---------------------|

(Guitar 2)
(0:58)

e|----------------------------------------|
B|----------------------------------------|
G|----------------------------------------|
D|---------------------7--5--7/9--7-------|
A|----------7--5--7/9----------------7\0--|
E|--5--7/9--------------------------------|

(Guitar 2)
(1:08)

e|--------------------------------------------|
B|--------------------------------------------|
G|--7b9--7b9r7p5------------------------------|
D|----------------7---------------------------|
A|-------------------7p5\3p0--------0h1-------|
E|----------------------------1--3---------0--|

(Guitar 1)
(1:09)

e|--1---------0--|
B|--1----3----0--|
G|--2----3----1--|
D|--3----3----2--|
A|--3----1----2--|
E|--1---------0--|

CHORUS 1:

(Guitar 1)

e|--5-5-----------3-3-------3--|
B|--5-5----7-7----3-3----5--3--|
G|--6-6----7-7----4-4----5--4--|
D|--7-7----7-7----5-5----5--5--| x3
A|--7-7----5-5----5-5----3--5--|
E|--5-5-----------3-3-------3--|

(Guitar 2)

e|---------------------------------------------|
B|-------------10b12r10------------------------|
G|-----6/7--9-------------------6/7--9--7b9r7--|
D|--7------------------------7-----------------|
A|---------------------------------------------|
E|---------------------------------------------|


e|-------------------------------------------------------------------------|
B|-------------10b12r10--10--12b13r12--12--10b12r10------------------------|
G|-----6/7--9----------------------------------------7/9--9--9--9--7/9--7--|
D|--7----------------------------------------------------------------------|
A|-------------------------------------------------------------------------|
E|-------------------------------------------------------------------------|

e|----0-0----2-2----4-4--|
B|----0-0----2-2----3-3--|
G|--0h1-1--1/2-2--2/4-4--|
D|-----------------------|
A|-----------------------|
E|-----------------------|

VERSE 2:

(Guitar 1)

e|--5-5-----------3-3-------3--|
B|--5-5----7-7----3-3----5--3--|
G|--6-6----7-7----4-4----5--4--|
D|--7-7----7-7----5-5----5--5--| x3
A|--7-7----5-5----5-5----3--5--|
E|--5-5-----------3-3-------3--|

(Guitar 2)
(1:58)

e|--12-------7-----------------|
B|--15b17----10b12---5----5----|
G|-------------------7b9--7b9--|
D|-----------------------------|
A|-----------------------------|
E|-----------------------------|

(Guitar 1)
(2:03)

e|--14----10----12----8---|
B|--14----10----12----8---|
G|--14----11----12----9---|
D|--14----12----12----10--| x3
A|--12----12----10----10--|
E|--------10----------8---|

(Guitar 2) (w/low octave effect)
(2:08)

e|-------------------------------------------|
B|-------------------------------------------|
G|-------------------------------------------|
D|------------------------7--5--7/9--7-------|
A|-------------7--5--7/9----------------7\0--|
E|--12\5--7/9--------------------------------|

(Guitar 2)
(2:18)

e|--------------------------------------------|
B|--------------------------------------------|
G|--7b9--7b9r7p5------------------------------|
D|----------------7---------------------------|
A|-------------------7p5\3p0--------0h1-------|
E|----------------------------1--3---------0--|

(Guitar 1)
(2:19)

e|--1---------0--|
B|--1----3----0--|
G|--2----3----1--|
D|--3----3----2--|
A|--3----1----2--|
E|--1---------0--|

(Guitar 2)
(2:22)

e|--------12-------10------8--8\7--|
B|--------12-------10------8--8\7--|
G|--12h13----10h11----9/10---10\9--|
D|---------------------------------|
A|---------------------------------|
E|---------------------------------|

CHORUS 2
(See Chorus 1)

BRIDGE:
(Guitar 1)
(2:46)

e|--2--------4-----------------7--------3--------------|
B|--2--------5--------7--------7--------3-----7-----9--|
G|--2--------6--------7--------8--------4-----7-----9--|
D|--4--------6--------7--------9--------5-----7-----9--|
A|--4--------4--------5--------9--------5-----5-----7--|
E|--2--------------------------7--------3--------------|

(Guitar 2)
(3:02)

e|---------------------------------------12-------10------8--8\7--|
B|---------------------------------------12-------10------8--8\7--|
G|-------------7/9p7--9b11r9----9-9-9/13----10h11----9/10---10\9--|
D|-----------5----------------------------------------------------|
A|-------5/7------------------------------------------------------|
E|--12\3----------------------------------------------------------|

CHORUS 3
(See Chorus 1)


OUTRO:

(Guitar 1)

e|-----------------------|
B|--5----7----3----5--3--|
G|--6----7----4----5--4--|
D|--7----7----5----5--5--| x3
A|--7----5----5----3--5--|
E|--5---------3-------3--|

e|----------------------------|
B|--1----0--2--3--4--5--------|
G|--2----1--2--4--4--6--------|
D|--3----2--4--5--6--7--------|
A|----------------------------|
E|----------------------------|

KEY:
(/)Slide Up
(\)Slide Down
(v)Vibrato
(hb)Half Bend
(fb)Full Bend
(b)Bend
(h)Hammer-on
(p)Pull-off
(r)Release
(x)Mute
Добавлено: 21.03.2016
Другие материалы по этой песне:
  • Аккорды и текст

Страница создана 21.03.2016
http://primanota.ru/mark-ronson/leaving-los-feliz-chords.htm
Привет, Гость.
Предлагаем пройти революционный курс по гитаре.
Подарок от PrimaNota.Ru, забирай!