PrimaNota.ru - самый крупный в мире бесплатный архив песенных текстов, аккордов, табулатур и нот


Mark Mothersbaugh - Zissou Society Blue Star Cadets - таба, видео

Регистрация Запомнить меня
Войти через:  Facebook Google Twitter Vk Yandex Mail.ru

Mark Mothersbaugh - Zissou Society Blue Star Cadets - таба, видео

Печатать
Просмотров: 72
-------------------------------------------------------------------------------
                             Zissou Society Blue Star Cadets- Mark Mothersbaugh
-------------------------------------------------------------------------------
Tabbed by:majorseventh
E-mail:cwarner3000@gmail.com

Play along on youtube at: https://www.youtube.com/watch?v=VDXZ5GeDvp0

Tuning:Standard EADGBe

  
    A     D     A    Dmaj7  C     G     C     D     G     Cmaj7
e|--------------------2--0--0-3p2---------0-0-0--2--3p2p0--7-----------------|
B|------2-3--0----2-3-2-----1-----3--0--1-1-1-3--3--0------8--10-------------|
G|--2h4---2-----2-----2-----0-----0-----0-----2--2--0------9-----------------|
D|--2-----0-----2-----0-----2-----0-----2-----0--0---------------------------|
A|--0-----------0-----------3-----------3------------------------------------|
E|--------------------------------3-----------------3------8-----------------|

   Fadd9  G     A      D      E7   A  F  C  A
e|--3p1p0--------------------------------------------------------------------|
B|--1-----3--1--2h3--2h3p2--3p2p0--------------------------------------------|
G|--2-----0-----2------2------1----2-----------------------------------------|
D|--3-----------2------0------2----2--3--------------------------------------|
A|--------------0-------------2----0--3--3--0--------------------------------|
E|--------3-------------------0----------3-----------------------------------|




************************************

| /   slide up
| \   slide down
| h   hammer-on
| p   pull-off
| ~   vibrato
| +   harmonic
| x   Mute note
| b   Bend
| pb  Pre-bend
| br  Bend release
| pbr Pre-bend release
| brb Bend release bend

************************************
Добавлено: 08.05.2016
Другие материалы по этой песне:

Страница создана 03.04.2012
http://primanota.ru/mark-mothersbaugh/zissou-society-blue-star-cadets-chords.htm
Привет, Гость.
Предлагаем пройти революционный курс по гитаре.
Подарок от PrimaNota.Ru, забирай!