PrimaNota.ru - самый крупный в мире бесплатный архив песенных текстов, аккордов, табулатур и нот


Mark Mothersbaugh - Previously On Jump Street - таба, видео

Регистрация Запомнить меня
Войти через:  Facebook Google Twitter Vk Yandex Mail.ru

Mark Mothersbaugh - Previously On Jump Street - таба, видео

Печатать
Просмотров: 64
-------------------------------------------------------------------------------
                             Previously on jump street-Mark Mothersbaugh
-------------------------------------------------------------------------------
Tabbed by:Eelimestari
E-mail:eelimestari@gmail.com

Tuning:Standard

this song is from the movie called 22 Jump Street and this is my first tab so if there is any
misses send me email. Enjoy :)

e|------------------------7--5--4-------------------------------------------------------|
B|--------------9--------------------5---7----------------------------------------------|
G|-6---8---9--------6-------------------------8--6---6--6----4---4-4---6--6-6---2--2-2--|
D|--------------------------------------------------------------------------------------|
A|--------------------------------------------------------------------------------------|
E|--------------------------------------------------------------------------------------|

e|-----------------------------------------------------------------------------------|
B|-----------------------------------------------------------------------------------|
G|-4--4-4------6--6-6----------------------------------------------------------------|
D|-----------------------------------------------------------------------------------|
A|-----------------------------------------------------------------------------------|
E|-----------------------------------------------------------------------------------|

You better listen this song before you play it so you play it right.
https://www.youtube.com/watch?v=tt4nrrUfap4


************************************

| /   slide up
| \   slide down
| h   hammer-on
| p   pull-off
| ~   vibrato
| +   harmonic
| x   Mute note
| b   Bend
| pb  Pre-bend
| br  Bend release
| pbr Pre-bend release
| brb Bend release bend

************************************
Добавлено: 11.08.2015
Вам также может быть интересно:
Другие материалы по этой песне:
  • Аккорды и текст

Страница создана 11.08.2015
http://primanota.ru/mark-mothersbaugh/previously-on-jump-street-chords.htm
Привет, Гость.
Предлагаем пройти революционный курс по гитаре.
Подарок от PrimaNota.Ru, забирай!