PrimaNota.ru - самый крупный в мире бесплатный архив песенных текстов, аккордов, табулатур и нот


Mark Mothersbaugh - Margaret Yangs Theme - таба, видео

Регистрация Запомнить меня
Войти через:  Facebook Google Twitter Vk Yandex Mail.ru

Mark Mothersbaugh - Margaret Yangs Theme - таба, видео

Печатать
Просмотров: 54
-------------------------------------------------------------------------------
                             Margaret Yang's Theme - Mark Mothersbaugh
-------------------------------------------------------------------------------
Tabbed by : Samuel Vachon


Intro :

e|-12-15-13-12-10-13-12-10-8-12-10-8-7-10-8-7-5-7-8-10-12-10-8----------10---------12-----------|
B|-------------------------------------------------------------8-7-8-10----9-10-12--------------|
G|----------------------------------------------------------------------------------------------|
D|----------------------------------------------------------------------------------------------|
A|----------------------------------------------------------------------------------------------|
E|----------------------------------------------------------------------------------------------|

e|-12-13-15/20-20-19-17----16-17-19-17-16-17-17----17----19-20-22-19-22-19-20-|
B|----------------------17----------------------20----18----------------------|
G|----------------------------------------------------------------------------|
D|----------------------------------------------------------------------------|
A|----------------------------------------------------------------------------|
E|----------------------------------------------------------------------------|


Verse (Not sure about this part) : 

e|---------------------------------------------------------------------------|
B|---------------------------------------------------------------------------|   x2
G|---------------------------------------------------------------------------|
D|---------------------------------------------------------------------------|  (Play long notes instead if you
A|-3-3-3-3---------5-5-5-5---------------------------------------------------|   want to sound like to original,
E|---------1-1-1-1---------3-3-3-3-------------------------------------------|   picking just adds fun)

e|---------------------------------------------------------------------------|
B|---------------------------------------------------------------------------|
G|---------------------------------------------------------------------------|
D|---------------------------------------------------------------------------|
A|-3-3-3-3-5-5-5-5-7-7-7-7-8-8-8-8-12-12-12-12-14-14-14-14-15-15-15-15-15----|
E|---------------------------------------------------------------------------|


Break : 

e|-------------------------------------------5-7-8-10-8-7-5------------------|
B|-5---5-6---5-5---5---5-6---5-5---5---5-6-8----------------8-6-5------------|
G|---7-----7-----7---7-----7-----7---7----------------------------7----------|
D|---------------------------------------------------------------------------|
A|---------------------------------------------------------------------------|
E|---------------------------------------------------------------------------|

e|---------------------------------------------------------------------------|
B|-----------------8-----------3-5-6-------------3-5-------------------------|
G|----------7-9-10-------2-4-5-----------0-2-4-5-----------1-2---------------|    x2
D|-7-7-9-10----------5-5-------------3-3-------------2-2-4-------------------|
A|---------------------------------------------------------------------------|
E|---------------------------------------------------------------------------|


Order : 

Intro
Verse
Break
Verse
Break
Intro

The second time you play the intro finish with

e|-19-20-22-19-20|

instead of

e|-19-20-22-19-22-19-20-|

Have fun learning this!
Добавлено: 12.12.2015
Другие материалы по этой песне:
  • Аккорды и текст

Страница создана 12.12.2015
http://primanota.ru/mark-mothersbaugh/margaret-yangs-theme-chords.htm
Привет, Гость.
Предлагаем пройти революционный курс по гитаре.
Подарок от PrimaNota.Ru, забирай!